busca

Oh Me

Nirvana

Tom: G
(intro)

(riff)
E|--------------0----------------0-0-0---------------0---------------0-
B|--------------0----------------3-3-3---------------3---------------0-
G|--------------1----------------0-0-0-----------0---0---------------1-
D|--------2-----2---------2-0-0--4-4-4--------2--0-0-4--2---2/4------2-
A|---0-2--------2----0-2----0-0-----------0-2-----------3-3-3/5------2-
E|-4---------0--0--4--------------------4------------------------0-0-0-

(riff)

if I had loose mile
If I had to touch felling
I would loose my soul
the way I do
I don't have to think
I only have to do it
teh results are always perfect
but that's old news
would you like to hear my voyce?
sweetened with emotion
invented at your birth

(refrão)
G      E   G              E
I can't see the end of me
G       E        G      E
My whole expanse I cannot see
            C
I formulate infinity
    D             E
And store it deep inside of me

(solo)
E|---------------------------3/2------------2/5-5-5-3-2----------------------
B|--------------------3-3/5-------5-----5-------------5/3----------------3-5-
G|--------------2-2h4------------------------------------------4-2-2-2/4-----
D|-------2-2h4---------------------------------------------------------------
A|---0-2---------------------------------------------------------------------
E|-4-------------------------------------------------------------------------

(riff)

if I had loose mile
If I had to touch felling
I would loose my soul
the way I do
I don't have to think
I only have to do it
teh results are always perfect
but that's old news
would you like to hear my voyce?
sweetened with emotion
invented at your birth

(refrão)
(repete a base do refrão)  G E G  E G E G C D E

Clipes

Cifra Club Pro

Aproveite o Cifra Club com benefícios exclusivos e sem anúncios
Cifra Club Pro
Aproveite o Cifra Club com benefícios exclusivos e sem anúncios