busca

Paper Cuts

Nirvana

Tom: F
Afinaçao: E,a,d,g,b,e.
ab = abafado.
^ = Bend.

Intro:

e|-------------------------------------------------------|
b|-------------------------------------------------------|
g|-------------------------------------------------------|
d|-------------------------------------------------------|
a|--2a--2a--2a--2a--2a--2a-----2a--2a--2a--2a------------|
e|--1a--1a--1a--1a--1a--1a-----1a--1a--1a--1a------------|

Verso

e|---------------------------------------------------0--------
b|------------------------------------------------0------0----
g|---------------------------------------------3-------3------
d|------------------------------------------------------------
a|--2a--2a--2a--2a--2a--2a----2a--2a--2a--2a------------------
e|--1a--1a--1a--1a--1a--1a----1a--1a--1a--1a------------------

Ponte

e|---------0---------0----------0--------0-----|
b|----------------0----------0---------0-------|
g|------3----3---------3-3--------3------------|
d|---------------------------------------------|
a|---------------------------------------------|
e|--0------------------------------------------|

Refrao:

e|--------------------------------------------------------------|
b|--------------------------------------------------------------|
g|--------------------------------------------------------------|
d|--------------------------------------------------------------|
a|---3a-4a-4a-5a-5a-6a-6a-7a--8-8-8-8---8--8--------------------|
e|---1a-2a-2a-3a-3a-4a-4a-5a--6-6-6-6---6--6--------------------|
                "I said................so"

e|------------------------------------------------|
b|------------------------------------------------|
g|------------------------------------------------|
d|------------------------------------------------|
a|---5---4--4--4-4-4-4---------8---6--6--6-6-6-6--|
e|---3---2--2--2-2-2-2----6---5--5--5-5-5-5-------|
                   "Nirvana"

e|--------------------------0----------------------------0--------------
b|--------------------------0----------------------------0--------------
g|--------------------------3----------------------------3--------------
d|--------------------------3----------------------------3--------------
a|--2a--2a----2a--2a--2a----2----2a--2a----2a--2a--2a----2--------------
e|--1a--1a----1a--1a--1a----1----1a--1a----1a--1a--1a----1-----1^-------


Paper Cuts

At feeding time
She pushes food through the door
And I crawl towards the crack of light
Sometimes I can't find my way
Newspapers spread around
Soaking all that they can
A cleaning is due again
A good hosing down

The lady whom I feel a maternal love for 
Cannot look me in the eyes
But I see hers and they are blue
And the cock and twitch and masturbate!

I said so
I said so
I said so
Nirvana

Black windows of paint
I scratched with my nails
I see others just like me
Why do  they not try to escape?
They bring out older ones
They point at my way
They come with a flash of light
And take my family away


And very later I have learned
To accept some friends of ridicule
My whole existence is for your amusement
And that is why I´m here with you!
To take with me
You right to nirvana 

Clipes

Cifra Club Pro

Aproveite o Cifra Club com benefícios exclusivos e sem anúncios
7 dias grátis
Cifra Club Pro
Aproveite o Cifra Club com benefícios exclusivos e sem anúncios
7 dias grátis