busca

Pen Cap Chew

Nirvana

Tom: E
Esta música é do álbum "With The Lights Out" CD 1, faixa de número 7.

Tuning:Standard ½step down

INTRO

E5      G5
------------------------I
------------------------I
------------------------I
------------------------I
------------------------I
0-0-0-0-3------'--------I
PM_____


4TH REPEAT OF INTRO

E5      G5
------------------------I
------------------------I
------------------------I
------------------------I
--------4--gb5----------I
0-0-0-0-----------------I
PM_____

6TH REPEAT OF INTRO

E5      G5
------------------------I
------------------------I
------------------------I
------------------------I
--------5-----\4--------I
0-0-0-0-----------------I
PM_____


VERSE

E5      G5
------------------------I
------------------------I
------------------------I
------------------------I
------------------------I
0-0-0-0-3------'--------I
PM_______

PRE-CHORUS
E5      G5
------------------------I
------------------------I
------------------------I
------------------------I
--------5---------------I
0-0-0-0-3---------------I
PM_____

CHORUS
B5    A5    F#5   A5      E5    G5      D5     F5
------------------------I------------------------------I
------------------------I------------------------------I
4--4--2--2--------2--2--I--------------7-7-7-7-10-10-0-I
4--4--2--2--4--4--2--2--I-2--2--5--5---7-7-7-7-10-10-0-I
2--2--0--0--4--4--0--0--I-2--2--5--5---5-5-5-5-8--8--0-I
------------2--2--------I-0--0--3--3-------------------I

POST-CHORUS
B5          D5     F5
---------------------------I
---------------------------I
4----4-----7-7-7-7-10-10-0-I
4----4-----7-7-7-7-10-10-0-I
2----2-----5-5-5-5-8--8--0-I
---------------------------I

Clipes