busca

Pennyroyal Tea

Nirvana

Half step down (Eb Ab Db Gb)

Chorus (Do a quick slide on the E string before entering the chorus)         
                               *=bend
Gb:--------------------------------------------------
Db:--------------------------------------------------
Ab:-3-3-3-3-3-0-5-5-5-5-5-0--------------------------
Eb:--------------------------6-6-6-6-6-6-6-6-6-6-6---

Chorus Variation
Ab:-3-3-3-3-3-3/5-5-5-5-5/8----------------------------
Eb:-------------------------6-6-6-6-6-6-6-6-6-6-6------

Verse
Ab:-0-0-0-0-0-0-0-0/3-3-3\--------------------------------
Eb:--------------------------3-3-3-3-2-3-3-3-3-2-3-0------

Verse Continued
Ab.-0-0-0-0-0-0-0-0/12-12-12\----------------------------
Eb:---------------------------3-3-3-3-2-3-3-3-3-2-3-0----

Solo
Ab:-0-0-0-0-0-0-0-0/3-3-3*------------------------------
Eb:------------------------3-3-3-3-2-3-3-3-3-2-3-0------

Solo continued
Ab:-0-0-0-0-0-0-0-0/ 5-5-5\-------------------------
Eb:-------------------------3-3-3-3-2-3-3-3-3-2-3-0-

Ending
Ab:-0-0-0-0-0-0-0-0-0................



_______________________________________________________
Contribuição: Felipe Furlan da Rosa(fynonlipy@mtv.com.br)

Clipes

Cifra Club Pro

Aproveite o Cifra Club com benefícios exclusivos e sem anúncios
7 dias grátis
Cifra Club Pro
Aproveite o Cifra Club com benefícios exclusivos e sem anúncios
7 dias grátis