busca

Raunchola / Moby Dick (Medley)

Nirvana

Tom: G
Afinação DADGBE

----0--0--------------
----0--0--------------
----1--1--------------
--2------------------
--2------------------
--2------------------


--0~---
--0~---
--1~---   verso
-------
-------
-------

--------------------------
--------------------------
------5-5--7-7-7-7-7-7-7--
--5-5-5-5--7-7-7-7-7-7-7--      Refrão
--5-5-3-3--5-5-5-5-5-5-5--
--5-5---------------------


------------------------|---------|
------------------------|---------|
------------------------|---------|
-2-0-2-0-2-0-2-0-2/3-0--|---------|
-2-0-2-0-2-0-2-0-2/3-0--|--3^-0---|
-2-0-2-0-2-0-2-0-2/3-0--|---------|
Refrão 2                        fim do refrão 2 

-------------------------|
-------------------------|
-------------------------|
-------------------------|   x2
----5-5-3----------------|
--0-------5-3-5-3-5-3-0--|

---------------------|
---------------------|
---------------------|
-----5-5-3-0---------|   x2
--------------1-3-1--|
--5------------------|

---------------------------------------------------|
---------------------------------------------------|
-------------------------------------7-5-----------|
-----7-7-5---7-7---5-7-5-5-5-5-3---------7-5-------|   
-----------7-----7----------------5-----------8-5--|
--7------------------------------------------------|

Clipes

Cifra Club Pro

Aproveite o Cifra Club com benefícios exclusivos e sem anúncios
7 dias grátis
Cifra Club Pro
Aproveite o Cifra Club com benefícios exclusivos e sem anúncios
7 dias grátis