Return Of The Rat

Nirvana

Instrumento: Baixo
Verse:

   G#5     B5       F#5
G------------------------------------|
D------------------------------------|
A-----------2-2-2-2------------------|
E---4-4-4-4---------2-2-2-2-2-2-2-2--|

Chorus:

    Bb5   B5                G#5
G-----------------------------------|
D-----------------------------------|
A---1-1-1-2-1-1-1-2-1-1-1-2---------|  
E---------------------------4-4-4-4-|

End Of Chorus:


    F#5     B5      C#5
G-----------------------------------|
D-----------------------------------|
A-----------2-2-2-2-4-4-4-4-4-4-4-4-|
E---2-2-2-2-------------------------|


_______________________________________________________
Contribuição: Lucas Araujo Carvalho(wakko@liquid2k.com)
Composição: Greg SageColaboração e revisão: