F#
234
244322
Tom: G
Essa é a versão acustica de Verse Chorus Verse tem a mesma letra
 só q é cantada bem mais lenta e com esses dedilhados ...



#1t1##1t2#|-----------------------------------------------------------------------|
|-----------------------------------------------------------------------|
|-----4-----4-----------------------------------------------------------|
|---4-----4-----4--------5---------2-------4-----4---------5-----5------|
|-2-----2-----2--------5---------2---0---4-----4-----4---5-----5--------|
|-------------------3------3/5-0-------2-----2-----2---3-----3----------|#/1t2##/1t1#

repete até entrar o verso principal.


#2t1##2t2#|--------------------------------------------------------------|
|--------------------------------------------------------------|
|-----4-----4--------------------------------------------------|
|---4-----4-----4-----5-------5----------------2--------2------|
|-2-----2-----2-----5-------5-------5-------2--------2-------2-|
|-----------------3-------3------3-------0--------0--------0---|#/2t2##/2t1#
#3t1#                                              F#                                    
#3t2#-----------------------------------------------|
-----------------------------------------------|
-----------------------------------------------| 3x
-----5-------5----------------2--------2-------|
---5-------5-------5-------2--------2-------2--|
-3-------3------3-------0--------0--------0----|#/3t2##/3t1#
Composição: Colaboração e revisão: Jônathan DambrosRoberto Vale