busca

Sad

Nirvana

Tom: B
Essa é a versão acustica de Verse Chorus Verse tem a mesma letra
 só q é cantada bem mais lenta e com esses dedilhados ...



|-----------------------------------------------------------------------|
|-----------------------------------------------------------------------|
|-----4-----4-----------------------------------------------------------|
|---4-----4-----4--------5---------2-------4-----4---------5-----5------|
|-2-----2-----2--------5---------2---0---4-----4-----4---5-----5--------|
|-------------------3------3/5-0-------2-----2-----2---3-----3----------|

repete até entrar o verso principal.


|--------------------------------------------------------------|
|--------------------------------------------------------------|
|-----4-----4--------------------------------------------------|
|---4-----4-----4-----5-------5----------------2--------2------|
|-2-----2-----2-----5-------5-------5-------2--------2-------2-|
|-----------------3-------3------3-------0--------0--------0---|

                                              F#                                    
-----------------------------------------------|
-----------------------------------------------|
-----------------------------------------------| 3x
-----5-------5----------------2--------2-------|
---5-------5-------5-------2--------2-------2--|
-3-------3------3-------0--------0--------0----|

Clipes