busca

Serve The Servants

Nirvana

Tom: E
INTRO:

    esse é o começo:B7,E7,F#,E7   
1|--x----x----x----0-----|----12---------------------------------|
2|--x----x----x----0-----|-------12------------------------------|
3|--x----x----x---14-----|---------------|DRUMS GO IN|-----------|
4|--x----x----x---13-----|---------------------------------------|
5|--x----x----x---14-----|---------------------------------------|
6|--x----x----x----0-----|---------------------------------------|


VERSE:

        B7/E                    E9     F#      E7
1|------------------------|----------------------------|
2|------------------------|-----------3-------3--------|
3|-------2-------2--------|-------1----------------1---|
4|----1---------------1---|--2-2----------2------------|
5|-2---------2------------|----------------------------|
6|------------------------|----------------------------|
   teenage angst...


  F#5 F#sus2  E
1|------0---------0---------------------------|
2|------0---------0---------------------------|
3|------3---------1---------------------------|
4|--4---4----2--------------------------------|
5|--4---4----2--------------------------------|
6|--2---2----0--------------------------------|
        ...old.


CHORUS:
           A                    C#
1|-----------------------------------------------|
2|-----------------------------------------------|
3|------------------------6--6--6--6---6---6-----|
4|---7--7--7--7---7---7---6--6--6--6---6---6-----|
5|---7--7--7--7---7---7---4--4--4--4---4---4-----|
6|---5--5--5--5---5---5--------------------------|
                serve the servants....

BRIDGE:
                   
1|----------------------------------------------------------|
2|----------------------------------------------------------|
3|-----------13-----------------------------------------------|
4|-----------12-----------------------------------------------|
5|--444-555/-13------------------------------------------------------|
6|--222-333/-------------------------------------------------------|
  that legendary...                                 ...bore.



Solo :
--------------------------------|------------------------------------|
------------0-----0-------------|------------------------------------|
--4b-----4-----4-----4--4-4-4-4-|--4-4-4-4-4-4-4-4-4-4-4-4-4-4-4--4--|
--------------------------------|------------------------------------|
--------------------------------|------------------------------------|
--------------------------------|------------------------------------|


                                                                              
---------------------------|---------0----0-0-------|------------------------|
---------------------------|---------0----0-0-------|------------------------|
--4--2--0--0---------------|---------0----0-0-------|------------------------|
-----------0---------------|------------------------|-----------7r-----------|
-----------0---------------|------------------2--0--|--6/-7--7--7r-----5b----|
--------------3--3b---3b---|--0---------------------|--0------------------7--|


                                                                          
-----------------------|-----------------------|-------------------------|
-----------------------|-----------------------|-------------------------|
-----------------------|-----------------------|-------------------------|
-----------------------|-----------------------|-------------------------|
--0--2--2r---2----2~---|--2/-4--4--4b-----4r---|--4\-2--2--2~---2--2-----|
-----------------------|-----------------------|----------------------0--|


                                                               
--------------------------------|-----------------------------|
--------------------------------|-----------------------------|
--------------------------------|-----------------------------|
--------14--14b-14--14--14--14--|--14--14--14--14-------------|
--10b---16--16b-16--16--16--16--|--16--16--16b-16\------------|
--------------------------------|--------------------5--5~--5-|


                                                                         
-----------------------|---------0-----------|--------------------------|
-----------------------|---------0-----------|-----------------8--------|
-----------------------|---------------------|--------4--6/-7-----6--7--|
-----------------------|---------------------|--4--6--------------------|
-----------------------|---------------------|--------------------------|
--5/-7--7--7b-----7b---|--7~------------7----|--------------------------|


                                                                              
-----------------------------|---------------------------|-------------------|
--------10--10--10--8--------|---------------------------|-------------------|
--7/-9--9---9---9---7\-6--6--|--6/-7--7--6-7-6--7--6--7--|--2----------------|
-----------------------------|---------------------------|--2----------------|
-----------------------------|---------------------------|--0----------------|
-----------------------------|---------------------------|-------------------|


                        
----------------------|
----------------------|
--2--2--2--2----------|
--2--2--2--2----------|
--0--0--0--0----------|
----------------------|

Clipes