busca

Spank Thru

Nirvana

Tom: A
Eu peguei esta do Muddy Banks e não do Single!!!

Intro:
    A   G   D 
e|-0-0--33-2-2-|
B|-0-2--00-3-3-|
G|-2-2--00-2-2-|
D|-2-2--00-0-0-|

A|-0-0--22-----| Repita sem o D no segunda vez do riff
E|------33-----|

antes do refrão 
D A G A (2 vezes)


Parte distorcida:
   E   G
e|---0-3-0-|-
B|---0-3-0-|
G|-1---0---|
D|-2---0---|
A|-2---2---|
E|-0---3---|

Refrão:
B D A Bb B 
e|---------------------|---------|------------------------------|
B|---------------------|---------|-FIM do Riff:-----------------|
G|-4-4-4-4-4-4-7-7-7-7-|---------|------------------------------|
D|-4-4-4-4-4-4-7-7-7-7-|-7-7-8-9-|--------------5-5-5-5-3-3-3-3-|
A|-2-2-2-2-2-2-5-5-5-5-|-7-7-8-9-|--------------5-5-5-5-3-3-3-3-|
E|---------------------|-5-5-6-7-|--------------3-3-3-3-1-1-1-1-|

Solo:

e|------------------14-15-14-15-14-15---|
B|------------------14-15---------------|
G|-1/1513/142/10--------------------0-|
D|--------------------------------------|
A|--------------------------------------|
E|--------------------------------------|

Clipes