busca

Stain

Nirvana

Tom: A
Intro:

|-------|
|-------|
|-------|
|-0---1-|
|-0---1-|
|-0---1-|

Then the verse goes something like

|---------------------|
|---------------------|
|---------------------|
|-1-2-2-2-1-1-1-2-2-2-|
|-1-2-2-2-1-1-1-2-2-2-|
|-1-2-2-2-1-1-1-2-2-2-|

The chorus goes...

|---------------------|
|---------------------|
|---------------------|
|-8-8-7-7-7-0---------|
|-8-8-7-7-7-0-let ring|
|-8-8-7-7-7-0---------|
  "I'm a stain..."

The solo is actually two guitars, but I've heard live versions and he on
plays one of those parts.  It goes like this.
                                        ) )
|--------4\3-3-------4\3-3-------4\3-3--6-6-------4\3-3-------4\3-3-----
|-----------------------------------------------------------------------
|-----------------------------------------------------------------------
|-1/2-2--------1/2-2-------1/2-2------------1/2-2-------1/2-2-----------
|-----------------------------------------------------------------------
|-----------------------------------------------------------------------
               ) )                                     ) )             )
|-------4\3-3--9-9-------------------------------------9-9-------------9
|-----------------------------------------------------------------------
|------------------------4\3-3-------4\3-3-------4\3-3-----------4\3-3--
|-1/2-2------------1/2-2-------1/2-2-------1/2-2-----------1/2-2--------
|-----------------------------------------------------------------------
|-----------------------------------------------------------------------
                   )     )     )     )
|-----------------12----12----12----12----------------------------------
|-----------------12----12----12----12----------------------------------
|-------4\3-3--14----14----14----14-------------------------------------
|-1/2-2-----------------------------------------------------------------
|-----------------------------------------------------------------------
|-----------------------------------------------------------------------

Lyrics:

Well he never bleeds and he never fucks
And he never sleeps cause he's got bad luck
Well he never eats and he never rusts
And he never leaves cause he's got bad luck yeah

I'm a stain

Clipes