busca

Talk To Me

Nirvana

Tom: E
Essa musica foi gravada ao vivo em um show antigão deles, começa com
 esses acordes sem distorção, a partir da segunda veis entra a 
distorção, e quando entra o vocal fica desplugado de novo.


   F#  Bb B F# Em  A
|-------------------------|
|-------------------------|
|------33-4------222222---|
|--4-4-33-4-4--2-222222---|
|--4-4-11-2-4--2-000000---|
|--2-2------2--0----------|

"Shake it down easy, shake it down sleazy, come on”...
    Bb8          C8  C#8 C8
|---------------------------------|
|---------------------------------|
|--33333-------5-5-5/6-6-5--------|
|--------(...)--------------------|
|--11111-------3-3-3/4-4-3--------|
|---------------------------------|

"Don't let me detain you 
Try to ride along”....

Repete até o Kurt gritar "Talk to meeee..”, q fica nos mesmos 
acordes do começo da musica só q com distorção:

   F#  Bb B F# Em  A
|-------------------------|
|-------------------------|
|------33-4------222222---|
|--4-4-33-4-4--2-222222---|
|--4-4-11-2-4--2-000000---|
|--2-2------2--0----------|

Agora repete tudo desde o primeiro verso.
Depois vem o solo, é só um monte de bends e microfonia, ainda mais q 
é ao vivo.. apenas improvise bends, depois repete tudo novamente. E 
acaba...

Clipes

Cifra Club Pro

Aproveite o Cifra Club com benefícios exclusivos e sem anúncios
Cifra Club Pro
Aproveite o Cifra Club com benefícios exclusivos e sem anúncios