busca

Territorial Pissing

Nirvana

Tom: D
  Intro  & rhy. fig. 1
  w/heavy distortion
    A5                       F5
 |------------------------------------------------------------|
 |------------------------------------------------------------|
 |---------------------------10--10--10--10--10--10--10-------|
 |--7--7--7--7--7--7---------10--10--10--10--10--10--10-------|
 |--7--7--7--7--7--7----0-----8---8---8---8---8---8---8---0---|
 |--5--5--5--5--5--5----0---------------------------------0---|


    D5
 |----------------------------------------------------------------------|
 |----------------------------------------------------------------------|
 |----------------------------------------------------------------------|
 |--12--12--12--12--12--12--12--12--12--12--12--12--12--12--12--12------|
 |--12--12--12--12--12--12--12--12--12--12--12--12--12--12--12--12---0--|
 |--10--10--10--10--10--10--10--10--10--10--10--10--10--10--10--10---0--|
    

  w/rhy. fig 1
  When I was an alien 
  cultures weren't opinions
  
  Gotta find a way 
  to find a way 
  when I'm there
  Gotta find a way 
  a better way 
  I had better wait... (etc.)

  Never met a wise men, 
  if so it's a woman
  Gotta find a way 
  to find a way 
  when I'm there
  
  Gotta find a way 
  a better way 
  I had better wait... (etc.)

  
                   F5        
 |-------------------------|
 |-------------------------|
 |---9--5------------------|
 |---------7-----(10)------|
 |------------7--(10)------| 
 |---------------(-8)------|



  w/feedback
  Just because you're paranoid, 
  doesn't mean they're 
  not after you.
  
  w/rhy.fig 1
  Gotta find a way     (etc.)
 

Clipes