busca

Token Eastern Song

Nirvana

Tom: E
|---0------------------0-------------------0--------------------------|
|---0------------------0-------------------0--------------------------|
|---------------------------------------------------------------------|
|-2------------------2-------------------2----------------------------|
|-2------------------2-------------------2----------------------------|
|-0---1----4----1----0----1----4----1----0----1----4----1-------------|

repete até entra o refrão:

     F#   F     F#    F    F#   F
|-----------------------------------|
|-----------------------------------|
|-----------------------------------|
|--444-3-33/4-444-3-33/4-444-3-33---|
|--444-3-33/4-444-3-33/4-444-3-33---|
|--222-1-11/2-222-1-11/2-222-1-11---|

A musica baseia-se nesses acordes acima, do verso e do refrão,
depois vem um solo cheio de bends e microfonias, ai abaixo tem as
principais notas, a partir delas vc pode improvisar, mais é
impossível tira exatamente igual, até pq é uma gravação ao vivo.


|------------------------------------------------------
|------------------------------------------------------
|------------------------------------------------------
|----5-7-5----------5-7-5-------5-7-5-7-7-8b-8b-8b----- 2X
|--7-------7-5-7--7-------7-5-7------------------------
|------------------------------------------------------

-------------------------------------------------------------
-------------------------------8-8-10b-8-10-8-10b-8-10-8-10b-
-----7-9b~-----7-9b~-----7-9b~-------------------------------
-7-8-------7-8-------7-8-------------------------------------
-------------------------------------------------------------
-------------------------------------------------------------

--------10b--------10b--------10b------------|
-8-10-8-10b-8-10-8-10b-8-10-8-10b-8-10-8-8---|
---------------------------------------------|
---------------------------------------------|
---------------------------------------------|
---------------------------------------------|


Token Eastern Song
*k. cobain

I'm not gonna let you through
You may decide it's not that good
I'm not gonna let you free
You may decide on stopping me
I'm not gonna let you through
You may decide it's nothing new
I'm not gonna let you through
You may decide there's nothing there

Hold it in your gut

I'm not gonna let you through
You may decide it's nothing new
I'm not gonna let you leave
You may decide it's not for me
I'm not gonna let you through
You may decide it's nothing new
I'm not gonna let you leave
You may decide on stopping me

Hold it in your gut
Gone

Clipes