busca

What More I Can Say

Nirvana

Tom: F# (forma dos acordes no tom de G) Afinação: Eb Ab Db Gb Bb Eb
MAIN RIFF

D|--------------------------------------­---------------------------------
A|--------------------------------------­---------------------------------
F|----5-----5--5------5-----5--5--------­---------------------------
C|----5-----5--5------5-----5--5-----------0--0--0--0--0--0
G|----3-----3--3------3-----3--3-----------0--0--0--0--0--0
C|-----------------------3-----3--3-----­--0----0--0--0--0--0--0

VERSE
D|--------------------------------------­----------------------------------------­----------------------------------------­------------------
A|--------------------------------------­-------5--5----------8--8--8------------­----------------------------------------­-------------
F|----5----5--5---/-2--2--2--2----5------5----8----8--8--8---------------------­----------------------------------------­----
C|----5----5--5---/-2--2--2--2----5------5----8----8--8--8------3----3--3--3----3--3----6----6--6--6--5--6--
G|----3----3--3---/-0--0--0--0----3------3----6----6--6--6------3----3--3--3----3--3----6----6--6--6--5--6--
C|--------------------------------------­----------------------------------------­3----3--3--3--3--3--3----6----6--6--6----6--

BRIDGE 
D|--------------------------------------­------------------------------
A|---------------5--5--5--5--5-----2----­--2--2--2--2--2--2
F|----5-----5--5--5--5--5--5-----2------­2--2--2--2--2--2
C|----5-----5--5--5--5--5--5-----2------­2--2--2--2--2--2 
G|----3-----3--3--3--3--3--3-----0------­0--0--0--0--0--0
C|--------------------------------------­------------------------------

LOUD CHORUS RIFF
D|--------------------------------------­---------------------------------
A|--------------------------------------­---------------------------------
F|----5-----5--5------------------------­------------------------------
C|----5-----5--5------3-----3--3----/---­0----0--0--0--0--0--0
G|----3-----3--3------3-----3--3----/---­0----0--0--0--0--0--0
C|-----------------------3-----3--3-------0----0--0--0--0--0--0

GRUNGY MIDDLE BIT
D|--------------------------------------­­---------------------------------------­----------------------------------------­-------------------------
A|--------------------------------------­­---------------------------------------­----------------------------------------­-------------------------
F|----6----5------2--2--2--2------------­­----------------------------------5----­5--5--2----------------------­-------8--­7--8--7--8--7
C|----6----5------2--2--2--2------3----3­­--3--/--0--0--0--0--------5----5--5--2-­--3--3--3---/---0-----­--7--7--7--7--7--­7
G|----4----3------0--0--0--0------3----3­­--3--/--0--0--0--0--------3----3--3--0-­--3--3--3---/---0-----­--0--0--0--0--0--­0
C|--------------------------------------­­3----3--3--/--0--0--0--0---------------­-------------3--3--3---/---0-­------0----0--0--0--0

END BRIDGE
D|-----------(PM)-----------------------­-----------------------
A|--------------------------------------­---------------------------
F|--------------------------------------­----------------------------
C|----1-----1--1--1--1--1--1--3--3--3----3--3--3--3 ****BACK TO LOUD CHORUS RIFF****
G|----1-----1--1--1--1--1--1--3--3--3----3--3--3--3
C|----1-----1--1--1--1--1--1--3--3--3----3--3--3--3

Clipes

Cifra Club Pro

Aproveite o Cifra Club com benefícios exclusivos e sem anúncios
Cifra Club Pro
Aproveite o Cifra Club com benefícios exclusivos e sem anúncios