busca

White Lace And Strange

Nirvana

Tom: A
Intro./Verso:
e------------------------------------------------------------------------
B------------------------------------------------------------------------
G------------------------------------------------------------------------
D------------------------------------------------------------------------
A---7-7---------5-7-5-7---7-7---------5-7-5-7----------------------------
E---0-0-4-5-6-7-----------0-0-4-5-6-7------------------------------------

Refrão:
e-------------------------------------------------------------------------
B-------------------------------------------------------------------------
G---9-9-7-9-9-9-7-9-9-9------9-9-7-9-9-9-7-9-9-9--------------------------
D---9-9-7-9-9-9-7-9-9-9-9-9--9-9-7-9-9-9-7-9-9-9-9-9----------------------
A---7-7-5-7-7-7-5-7-7-7-9-9--7-7-5-7-7-7-5-7-7-7-9-9----------------------
E-----------------------7-7----------------------7-7----------------------

Clipes

Cifra Club Pro

Aproveite o Cifra Club com benefícios exclusivos e sem anúncios
7 dias grátis
Cifra Club Pro
Aproveite o Cifra Club com benefícios exclusivos e sem anúncios
7 dias grátis