A
123
X02220
A/C#
1234
X4X255
Bm7
34
X24232
D
123
XX0232
G
123
320003
Tom: G
[Intro] Bm7

[Refrão]

D    Bm7  G      D   A/C#
 Aleluia,    aleluia
       Bm7  G     D    A
Tu és digno   de louvor
    Bm7  G      D   A/C#
Aleluia,    aleluia
       Bm7  G     D    A
Tu és digno   de louvor

Bm7
   Te exaltamos
G
 Te exaltamos
D            A/C#
 Te exaltamos,    Jesus

#1t1#     Bm7                 G               D               A
#1t2#E|----------------17---------------17--------------17--------------14-|
B|---15-----14---------15----14---------15---14---------15----14------|
G|-14----14----14---14----14----14---14---14----14----14----14---14---|
D|--------------------------------------------------------------------|
A|--------------------------------------------------------------------|
E|--------------------------------------------------------------------|#/1t2##/1t1#

Bm7
   Te entronizamos
G
 Te engrandecemos
D                       A
 Glória ao teu nome oh Deus!

#2t1#     Bm7                 G               D               A
#2t2#E|----------------17---------------17--------------17--------------14-|
B|---15-----14---------15----14---------15---14---------15----14------|
G|-14----14----14---14----14----14---14---14----14----14----14---14---|
D|--------------------------------------------------------------------|
A|--------------------------------------------------------------------|
E|--------------------------------------------------------------------|#/2t2##/2t1#

[Pré-Refrão]

Bm7
   Te exaltamos
G
 Te exaltamos
D            A/C#
 Te exaltamos,    Jesus
Bm7
   Te entronizamos
G
 Te engrandecemos
D                       A
 Glória ao teu nome oh Deus!

[Refrão]

    Bm7  G      D   A/C#
Aleluia,    aleluia
       Bm7  G     D    A
Tu és digno   de louvor

    Bm7  G      D   A/C#
Aleluia,    aleluia
       Bm7  G     D    A
Tu és digno   de louvor

[Pré-Refrão]

Bm7
   Te exaltamos
G
 Te exaltamos
D            A/C#
 Te exaltamos,    Jesus
Bm7
   Te entronizamos
G
 Te engrandecemos
D                       A
 Glória ao teu nome oh Deus!

[Refrão]

    Bm7  G      D   A/C#
Aleluia,    aleluia
       Bm7  G     D    A
Tu és digno   de louvor

    Bm7  G      D   A/C#
Aleluia,    aleluia
       Bm7  G     D    A
Tu és digno   de louvor

[Solo]

#3t1##3t2#E|-14-----14---15------15--14------14----12---12--------14-|
B|---15-15---15---15-15--15--15-15----15---15---15-14---15-|
G|------------------------------------------------------14-|
D|---------------------------------------------------------|
A|---------------------------------------------------------|
E|---------------------------------------------------------|#/3t2##/3t1#

[Refrão]

    Bm7  G      D   A/C#
Aleluia,    aleluia
       Bm7  G     D    A
Tu és digno   de louvor

    Bm7  G      D   A/C#
Aleluia,    aleluia
       Bm7  G     D    A
Tu és digno   de louvor

[Final]

#4t1##4t2#E|-14-----14---15------15--14------14----12---12--------14-|
B|---15-15---15---15-15--15--15-15----15---15---15-14---15-|
G|------------------------------------------------------14-|
D|---------------------------------------------------------|
A|---------------------------------------------------------|
E|---------------------------------------------------------|#/4t2##/4t1#
Composição: Nívea SoaresColaboração e revisão: Thiago AlmeidaVivi CambraiaNathan CaixetaRafael Correiae mais 4