B
234
X24442
C#
234
X46664
E
123
022100
Tom: G
Intro: C#  B  E  B

C#           B                            E      B
  Ele vem, e tudo o que existe já não mais existirá
C#          B                              E           B
 Ele vem, e toda a glória que este mundo tem já vai passar

(Intro)

C#          B                       E      B
 Ele vem, e toda a lágrima dos olhos enxugará
C#            B                    E          B
 Ele vem, e o inimigo da minha alma condenado já está

Coro:

 C#    B    E      B
               O Espírito e a noiva dizem:
  C#   B   E                  B
"Ve___em, vem pra buscar tua noiva!"
         C#   B   E                  B
Dizem: "Ve___em, vem pra buscar tua noiva!" Vem ...

(Intro)

C#          B                       E         B
 Ele vem, e cada dia mais a sua face eu vou tocar
C#          B                     E          B
 Ele vem, e no calor do seu abraço vou descansar

(Intro)

C#          B                         E         B
 Ele vem, e cada dia mais em santidade eu vou andar
C#          B                   E        B
 Ele vem, e sua glória quero ver neste lugar

"Ora vem senhor Jesus..." ( C#  G#m7  A  B )
"aquece o meu coração Senhor quero estar pronto pra te encontrar"

#1t1##1t2#E|-14-13---------------14-13--------------16-13-------------16-13-------------|
B|-------14------------------14-----------------14----------------14----------|
G|-----------13-13-13------------13-13-13----------13-13-13----------13-13-13-|
D|----------------------------------------------------------------------------|
A|----------------------------------------------------------------------------|
E|----------------------------------------------------------------------------|#/1t2##/1t1#

#2t1##2t2#E|-12----------------12----------------14-13---------------14-13--------------|
B|----14-12-------------14-12----------------14------------------14-----------|
G|----------13-13-13----------13-13-13-----------13-13-13------------13-13-13-|
D|----------------------------------------------------------------------------|
A|----------------------------------------------------------------------------|
E|----------------------------------------------------------------------------|#/2t2##/2t1#

#3t1##3t2#E|-14-13---------------14-13--------------14-13----14-13-----------------19-------17-------16-|
B|-------14------------------14-----------------14-------14-14--17----------------------------|
G|-----------13-13-13------------13-13-13--------------------------14-14----14-14----14-14----|
D|--------------------------------------------------------------------------------------------|
A|--------------------------------------------------------------------------------------------|
E|--------------------------------------------------------------------------------------------|#/3t2##/3t1#

#4t1##4t2#E|-12-12h14-14-14--14-19-21-19s21--21-21-19-19s0-|
B|-----------------------------------------------|
G|-----------------------------------------------|
D|-----------------------------------------------|
A|-----------------------------------------------|
E|-----------------------------------------------|#/4t2##/4t1#
Composição: Nívea SoaresColaboração e revisão: Jefferson BarbosamiquéiasLuiz