Em Tua Presença

Nívea Soares

Am7
12
X02010
C9
34
X35533
D
123
XX0232
D4
123
XX0233
D9
12
XX0230
Em
12
022000
Em7
123
022030
G
123
320003
G/D
1234
X5543X
Tom: G
[Intro] G  C9  Am7  Em7  C9

#1t1#Dedilhado da Introdução (Violão):
   G
#1t2#E|---------------------------------------------------------------------------------------------|
B|--------3----------3--------------3---------3------------------------------------------------|
G|------0-----0---0------0--------0-----0---0-------0------------------------------------------|
D|----0-----0---0------0--------0-----0---0-------0--------------------------------------------|
A|---------------------------------------------------------------------------------------------|
E|-3------------------------3------------------------------------------------------------------|#/1t2##/1t1#

#2t1#   C9
#2t2#E|---------------------------------------------------------------------------------------------|
B|-------3-----------------3------------------3------------------3-----------------------------|
G|-----0----------0-----0---------0---------0-----------0-----0---------2----------------------|
D|---2---------2---- 2---------2----------2----------2-----2---------0-------------------------|
A|-3------------------------------------3------------------------------------------------------|
E|---------------------------------------------------------------------------------------------|#/2t2##/2t1#

#3t1#   Am7                                 Em
#3t2#E|---------------------------------------------------------------------------------------------|
B|-------1----------------0------------------0----------------0--------------------------------|
G|-----0---------0-----0---------0---------0---------0-----0---------0-------------------------|
D|---2--------2-----2---------2----------2--------2-----2---------2----------------------------|
A|-0-----------------------------------2-------------------------------------------------------|
E|---------------------------------------------------------------------------------------------|#/3t2##/3t1#

#4t1#   C9
#4t2#E|---------------------------------------------------------------------------------------------|
B|-------3-----------------3------------------3-----------------3------------------------------|
G|-----0----------0-----0---------0---------0----------0-----0----------0----------------------|
D|---2---------2-----2----------2---------2---------2-----2----------2-------------------------|
A|-3------------------------------------3------------------------------------------------------|
E|---------------------------------------------------------------------------------------------|#/4t2##/4t1#

            G           C9
Eu quero estar neste lugar
          Am7                  Em7              C9
Onde o pecado é perdoado e as culpas são levadas

            G           C9
Eu quero estar neste lugar
         Am7                   Em7              C9
Onde o amor não se esfrie e o fogo não se apague

           Am7      Em7   G  D
Em Tua presença Senhor Jesus
           Am7      Em7   G
Em Tua presença Senhor Jesus

#5t1#(Guitarra)
    G/D    D4
#5t2#E|-7---------5---------------------------------------------------------------------------------|
B|-8--------8----8----7\8\7--------------------------------------------------------------------|
G|-7------7----------------7\2-----------------------------------------------------------------|
D|---------------------------------------------------------------------------------------------| (3x)
A|---------------------------------------------------------------------------------------------|
E|---------------------------------------------------------------------------------------------|#/5t2##/5t1#

         C9    Am7      Em7           D
Santo Espírito,  eu me rendo ao Teu agir
       C9    Am7      Em7         D
Meu anseio é, permanecer em Teu amor

           C9       Am7
Em Tua presença Senhor
           Em7  D
Em Tua presença
           C9       Am7
Em Tua presença Senhor
           Em7  D
Em Tua presença

[Solo] C9  Am7  Em7  D9
       C9  Am7  Em7  D9

#6t1##6t2#E|-12-12-12-15-15-15-14-14-14--------------------12-12-12-15-15-15-14-14-14--------------------|
B|-----------------------------12-12-12-12-12-12------------------------------10-10-10-10-10-10|
G|---------------------------------------------------------------------------------------------|  (2x)
D|---------------------------------------------------------------------------------------------|
A|---------------------------------------------------------------------------------------------|
E|---------------------------------------------------------------------------------------------|#/6t2##/6t1#
                                                                                                  
#7t1##7t2#E|------------10-10------------10-10-----------------------------------------------------------|
B|-10h12--12---------10h12-12---------10h12--10-----777-888-101010-121212-151515---------------|
G|---------------------------------------------------------------------------------------------|
D|---------------------------------------------------------------------------------------------|
A|---------------------------------------------------------------------------------------------|
E|---------------------------------------------------------------------------------------------|#/7t2##/7t1#

#8t1##8t2#E|-12-12-12-15-15-15-14-14-14--------------------12-12-12-15-15-15-14-14-14--------------------|
B|-----------------------------12-12-12-12-12-12------------------------------10-10-10-10-10-10|
G|---------------------------------------------------------------------------------------------| (2x)
D|---------------------------------------------------------------------------------------------|
A|---------------------------------------------------------------------------------------------|
E|---------------------------------------------------------------------------------------------|#/8t2##/8t1#

#9t1##9t2#E|------------10-10------------10-10-----------------------------------------------------------|
B|-10h12--12---------10h12-12---------10h12--10-----777-888------------------------------------|
G|----------------------------------------------------------999-7777---------------------------|
D|---------------------------------------------------------------------------------------------|
A|---------------------------------------------------------------------------------------------|
E|---------------------------------------------------------------------------------------------|#/9t2##/9t1#

            G           C9
Eu quero estar neste lugar
          Am7                    Em7             C9
Onde o poder não me corrompa,riquezas não me ceguem
            G           C9
Eu quero estar neste lugar
        Am7                    Em7             C9
Onde o mundo não me atraia,paixões não me seduzam

#10t1#Riff 1
#10t2#E|----------------------------------|
B|----13---8---12---7---13---8----12|
G|----------------------------------|
D|--14---9---12---7---14---9----9/12|
A|----------------------------------|
E|----------------------------------|#/10t2##/10t1#

           Am7      Em7   G  D
Em Tua presença Senhor Jesus
           Am7      Em7   G
Em Tua presença Senhor Jesus

         C9   Am7       Em7           D
Santo Espírito,  eu me rendo ao Teu agir
       C9    Am7      Em7         D
Meu anseio é, permanecer em Teu amor

           C9       Am7
Em Tua presença Senhor
           Em7  D
Em Tua presença
           C9       Am7
Em Tua presença Senhor
           Em7  D
Em Tua presença

[Solo] C9  Am7  Em7  D9
       C9  Am7  Em7  D9
       C9  Am7  Em7  D9


#11t1##11t2#E|-12-12-12-15-15-15-14-14-14-------------------12-12-12-15-15-15-14-14-14------------------|
B|----------------------------12-12-12-12-12-12----------------------------10-10-10-10-10-10|
G|------------------------------------------------------------------------------------------|
D|------------------------------------------------------------------------------------------|
A|------------------------------------------------------------------------------------------|
E|------------------------------------------------------------------------------------------|#/11t2##/11t1#

#12t1##12t2#E|------------10-10------------10-10-----------------------------------------------------------|
B|-10~12--12---------10~12-12----------10~12--10-----777-888-101010-121212-151515--------------|
G|---------------------------------------------------------------------------------------------|
D|---------------------------------------------------------------------------------------------|
A|---------------------------------------------------------------------------------------------|
E|---------------------------------------------------------------------------------------------|#/12t2##/12t1#

#13t1##13t2#E|-12-12-12-15-15-15-14-14-14-------------------12-12-12-15-15-15-14-14-14------------------|
B|----------------------------12-12-12-12-12-12----------------------------10-10-10-10-10-10|
G|------------------------------------------------------------------------------------------|
D|------------------------------------------------------------------------------------------|
A|------------------------------------------------------------------------------------------|
E|------------------------------------------------------------------------------------------|#/13t2##/13t1#

#14t1##14t2#E|------------10-10------------10-10-----------------------------------------------------------|
B|-10~12--12---------10~12-12----------10~12--10-----777-888-101010-121212-151515--------------|
G|---------------------------------------------------------------------------------------------|
D|---------------------------------------------------------------------------------------------|
A|---------------------------------------------------------------------------------------------|
E|---------------------------------------------------------------------------------------------|#/14t2##/14t1#

#15t1##15t2#E|---19-------19-------19-------19-------19-20-19-17-19----19-------19-------19-------19-------19-20-19-17-19|
B|17----17-17----17-17----17-17----17-17----------------17----17-17----17-17----17-17----17-17---------------|
G|-----------------------------------------------------------------------------------------------------------|
D|-----------------------------------------------------------------------------------------------------------|
A|-----------------------------------------------------------------------------------------------------------|
E|-----------------------------------------------------------------------------------------------------------|#/15t2##/15t1#
                                                                      
#16t1##16t2#E|---19-------17-------20-------19-------19-17----14-------14-------14-------14-------14---------------------|
B|17----17-17----17-17----17-17----15-15-------15----15-15----15-15----15-15----15-15----15------------------|
G|-----------------------------------------------------------------------------------------------------------|
D|-----------------------------------------------------------------------------------------------------------|
A|-----------------------------------------------------------------------------------------------------------|
E|-----------------------------------------------------------------------------------------------------------|#/16t2##/16t1#

#17t1##17t2#E|---19-------19-------19-------19-------19-20-19-17-19----19-------19-------19-------19-------19-20-19-17-19|
B|17----17-17----17-17----17-17----17-17----------------17----17-17----17-17----17-17----17-17---------------|
G|-----------------------------------------------------------------------------------------------------------|
D|-----------------------------------------------------------------------------------------------------------|
A|-----------------------------------------------------------------------------------------------------------|
E|-----------------------------------------------------------------------------------------------------------|#/17t2##/17t1#
                                                                      
#18t1##18t2#E|---19-------17-------20-------19-------19-17----14-------14-------14-------14-------14--------15-----------|
B|17----17-17----17-17----17-17----15-15-------15----15-15----15-15----15-15----15-15----15-----15-----------|
G|-----------------------------------------------------------------------------------------------------------|
D|-----------------------------------------------------------------------------------------------------------|
A|-----------------------------------------------------------------------------------------------------------|
E|-----------------------------------------------------------------------------------------------------------|#/18t2##/18t1#

         C9   Am7       Em7           D
Santo Espírito,  eu me rendo ao Teu agir
       C9    Am7      Em7         D
Meu anseio é, permanecer em Teu amor

           C9       Am7
Em Tua presença Senhor
           Em7  D
Em Tua presença
           C9       Am7
Em Tua presença Senhor
           Em7  D
Em Tua presença
Composição: Nívea SoaresColaboração e revisão: Lucas KappaunThiago Breves️️Ⓜ️UNIK 2Danilo Silvae mais 18