Acquiesce

Oasis

Principal
A
123
X02220
C
123
X32010
D
123
XX0232
E
123
022100
Fmaj7
1234
1X221X
G
123
320003
Tom: G
Tabbed by: Paul Flounders
Email: *

in which they have played the tune.

When I play the A in the opening verses, I play it as a bar chord and bounce it a bit 
at the start to give it a rocking sound!

Any questions, please email me!!!

| s  slide
| h  hammer-on
| p  pull-off
| ~  vibrato
| +  harmonic
| x  Mute note
| b  Bend

Tuning: Normal guitar tuning required

Lead Guitar tabs:

#1t1##1t2#e|--5---5-5-5-5s1---------------5---5-5-5-5-5-----------------|
B|--5---5-5-5-5s1---------------5---5-5-5-5-5-----------------|
G|--5h6-6-6-5-6s2---------------5h6-6-6-5-6-5-7b7-------------|
D|--5h7-7-7-5-7s3---------------5h7-7-7-5-7-5-7b7-------------|
A|--5h7-7-7-5-7s3---------------5h7-7-7-5-7-5-----------------|
E|--5---5-5-5-5s1---------------5---5-5-5-5-5-----------------|#/1t2##/1t1#

#2t1##2t2#e|--5---5-5-5-5s1---------------5---5-5-5-5-5-----------------|
B|--5---5-5-5-5s1---------------5---5-5-5-5-5-7b7-------------|
G|--5h6-6-6-5-6s2---------------5h6-6-6-5-6-5-7b7-------------|
D|--5h7-7-7-5-7s3---------------5h7-7-7-5-7-5-----------------|
A|--5h7-7-7-5-7s3---------------5h7-7-7-5-7-5-----------------|
E|--5---5-5-5-5s1---------------5---5-5-5-5-5-----------------|#/2t2##/2t1#

#3t1#                      A             D     G      A
#3t2#e|--------------------5-5-5-5-5-5-----------------------------|
B|--------------------5-5-5-5-5-5-----------------------------|
G|--7b7-5---5---------6-6-5-6-6-5-----------------------------|
D|--------7---7-5-7---7-7-5-7-7-5-----------------------5-7---|
A|--------------------7-7-5-7-7-5---6-5-----0-3-0-------------|
E|--------------------5-5-5-5-5-5-------0-3-------------------|#/3t2##/3t1#
#4t1#      D    G         A        D     G           A     D     G
#4t2#e|------------------------------------------------------------|
B|------------------------------------------------------------|
G|-----------------------5------------------------------------|
D|-------------------------7----------------------------------|
A|--0-6-5-----0-3-0-----------0-6-5-----0-3-0-----------------|
E|--------0-3-----------------------0-3-----------------------|#/4t2##/4t1#

A                                     D    G
I don't know what it is that makes me feel alive
A                                        D        G
I don't know how to wake the things that sleep inside
A                               D         G        A   D   G
I only wanna see the light that shines behind your eyes

A                                  D        G
I hope that I can say the things I wish I'd said
A                                    D       G
To sing my soul to sleep and take me back to bed
A                                 D    G       A  G  D  Fmaj7 E
Wants to be alone when we can feel alive instead


           Fmaj7  C    G        Fmaj7    C        G
Because we need   each other, We believe  in one another
           Fmaj7  C           G                            Fmaj7  C  G
And I know we're  going to uncover, What's sleeping in our soul
           Fmaj7 C     G           Fmaj7  C          G
Because we need   each other, We believe in one another
           Fmaj7  C           G                            Fmaj7  C  G
And I know we're  going to uncover, What's sleeping in our soul
                       A  G D Fmaj7 E
What's sleeping in our soooooooooooooouuul


A                                  D       G
There are many things that i would like to know
A                                D       G
And there are many places that i wish to go
A                                 D                G
But everything's depending on the way the wind may blow
A                                    D    G
I dont know what it is that makes me feel alive
A                                       D     G
I dont know how to wake the things that sleep inside
A                                                   A  G  D  Fmaj7  E
I only wanna see the light that shines behind your eyes

           Fmaj7 C     G           Fmaj7 C          G
Because we need   each other we believe  in one another
           Fmaj7  C           G                            Fmaj7 C G
And I know we're  going to uncover what's sleepin' in our soul
           Fmaj7 C     G           Fmaj7 C          G
Because we need   each other we believe  in one another
           Fmaj7  C           G                            Fmaj7 C G
And I know we're  going to uncover what's sleepin' in our soul
                 Fmaj7  C  G
Sleeping in our soul
                 Fmaj7  C  G
Sleeping in our soul
                 Fmaj7  C  G
Sleeping in our soul
                 Fmaj7  C  G
Sleeping in our soul
          Fmaj7  C  G
Cause we believe
          Fmaj7  C  G
Cause we believe
         Fmaj7  C  G
Cause we believe
          Fmaj7  C  G
Cause we believe

Outro:

#5t1##5t2#e|------------------------------------------------------------|
B|----1-----1-----1---1-----1-----1---1-----1-----1-----------|
G|------0-----0---------0-----0---------0-----0---------------|
D|--3-----3-----3---2-----2-----2---1-----1-----1-------------|
A|------------------------------------------------------------|
E|------------------------------------------------------------|#/5t2##/5t1#
#6t1#    C                G
#6t2#e|-------------------2----------------------------------------|
B|----------1--------2----------------------------------------|
G|------0-----0------0----------------------------------------|
D|----2---2-----2----0----------------------------------------|
A|--3-------------0--2----------------------------------------|
E|-------------------3----------------------------------------|#/6t2##/6t1#
Composição: Noel GallagherColaboração e revisão: