Acquiesce

Oasis

Principal
Instrumento: Baixo
Intro/Verse: 
G----------------- 
D----------------- 
A----------------- 
E-3-5-3-5-0-1-0-3- 

Pre-Chorus: 
G--------------------------- 
D--------------------------- 
A--------------------------- 
E-0-0-0-0-0-0-0-0-0-0-0-0-0- 

Chorus: 
G------------------- 
D------------------- 
A-------3-3-3-0----- 
E-1-1-1---------3-3- 

Outro: 
G------------------------------------------------ 
D------------------------------------------------ 
A-3-3-3-3-2-2-2-2-2-0-0-0-0---------------------- 
E---------------------------3-3-3-3-0-0-0-0-0--3-
Composição: Colaboração e revisão: Élison Duarte