busca

(As Long As They've Got) Cigarretes In Hell

Oasis

Tom: G
e|--------------------------
B|--------------------------
G|-5-5h7----5-5h7----5-5h7--

D C9 G D

Verso 1
D
spend your days just working on shopping
 C9                                 D
dependin' on how much your look is in
D
spend your nightlife table hopping
    C9                                 D
and trying to keep that bag a bones in trim

Refrão 1
C9               G         D
i don't mind not feelin' immortal
         C9                G         D
cause it ain't all that as far as i can tell
C9               G         D
i don't mind not going to heaven
C9
as long as they've got cigarettes
G                                    D
as long as they've got cigarettes in hell

Tem um dedilhado com esses acordes: D Cadd9 G

e|-----2-0-------0----------0-------------
B|---3---------3---3----3-------3---------

G|---------------------------------------- 2x, depois D
D|-0--------------------------------------
A|-----------3---------------------0-2-3-5
E|--------------------3-------------------

D
by the time we start getting used to
    C9                                D
the dirt that's forming on the window sill
D                               
now we know we've got ourselves into
    C9                                  G
the cage that keeps the mice on their treadmill

C9               G         D
i don't mind not feelin' immortal
         C9                G         D
cause it ain't all that as far as i can tell
C9               G         D
i don't mind not going to heaven
C9   
as long as they've got cigarettes
G                                    D
as long as they've got cigarettes in hell

Solo
_____
e|-2-2-2/3/5-10-10-10-10/--2-2-2/3/5-9-9b10r9b10r9b10r9
B|-----------------------------------------------------
G|-----------------------------------------------------

e|-2-2-2/3/5-10-10-10-10/--2-2-2/3/5-9-9b10r9b10r9b10r9--2-2-2-2-5-5/10-10
B|------------------------------------------------------------------------
G|------------------------------------------------------------------------

C9               G         D
i don't mind not feelin' immortal
         C9                G         D
cause it ain't all that as far as i can tell
C9               G         D
i don't mind not going to heaven
C9   
as long as they've got cigarettes
G                                    D
as long as they've got cigarettes in hell

Clipes

Cifra Club Pro

Aproveite o Cifra Club com benefícios exclusivos e sem anúncios
7 dias grátis
Cifra Club Pro
Aproveite o Cifra Club com benefícios exclusivos e sem anúncios
7 dias grátis