busca

Be Here Now

Oasis

Tom: E
Chords:
B:      (x24442)
A:      (002220)
E:      (022100)
G:      (320033)
D:      (xx0232)
        
Intro:
B           E    A  (x2)

Verse 1:
B
Wash your face in the morning sun
                       E                   A
Flash your pan at the song that I'm singin
B
Touch down base livin on the run
                     E                     A
Make no sweat of the hole that you're diggin

Noel toca esse riff após cada verso: /
Noel whistles this riff after each verse:
e|-4-1-------4-1-----4-1-----------1------|
B|-----2-4-2-----2-2-----2-2-4-2-4---4-2--|
G|----------------------------------------|
D|----------------------------------------|
A|----------------------------------------|
E|----------------------------------------|

Verse 2:
B
Wrap up cold when its warm outside
                 E                  A
Your shit jokes remind me of Digsys
B
Be my magic carpet ride
                 E                    A
Fly me down to capital city in the sun

Chorus:
Após cada linha da letra no chorus Noel toca o seguinte riff: / 
After each line of the lyrics in the Chorus Noel plays this riff:
  e|------------------------|
  B|-----10-12-10---10------|
  G|-12----------12----12b--|
  D|------------------------|
  A|------------------------|
  E|------------------------|

E                              D   A
Kickin up a storm
                E                             D   A
Since the day that I was born
E
Sing a song for me
D                        A
One from Let It Be
G                                     A
Open up your eyes get a grip of yourself inside

Verse 3:
B
Wrap up cold when its warm outside
                     E                 A
Please sit down you make me feel giddy
B
Be my magic carpet ride
                E           A
Fly me down to capital city

Chorus:
E                              D   A
Kickin up a storm
                E                             D   A
>From the day that I was born
E
Sing a song for me
D                        A
One from Let It Be
G                                     A
Open up your eyes get a grip of yourself inside

Outro:
B A E
Get a grip inside (várias vezes)/(many times)

Come on (x6)
Yeah! Yeah! Yeah! 
Back to Come on 
Finally back to Yeah! Yeah! Yeah!, Fades out

Outro Riff:
e|-0-2-3-5-7-5-3--|
B|----------------|
G|----------------|
D|----------------|
A|----------------|
E|----------------|

Clipes