busca

Boy With The Blues

Oasis

Tom: B (forma dos acordes no tom de G) Capotraste na 4ª casa
Intro: Em  Bm  Am  C    
       G  C  Em  (2x)
                
Verso 1:
     Em
You sing 
     Bm
You shout 
     Am             C
You turn the world around
        G          C           Em
Yeah we come all together for you

    Em
You let
    Bm
me see
    Am           C    
the man im gonna be
        G          C           Em
Yeah we come all together for you

Refrão:
Em7           Em6
Remember the shine
Em5+                 Em
Let my love take you high
Em7           Em6
Youve nothing to lose
Em5+                 Em
Youre just a boy with the blues

Solo:
    Em          Bm      Am          C
E|-------230--------------|---------2--0-----------|
B|---0--------4--0--4--0--|2-----2--------1--3--1--|
G|------------------------|---3--------------------|
D|------------------------|------------------------|
A|------------------------|------------------------|
E|------------------------|------------------------|

    G           C            Em
E|------0-----------------|0-----0---320-----3--2--||
B|0--------0--1-----1--3--|---0-----------0--------||
G|---0-----------0--------|------------------------||
D|------------------------|------------------------||
A|------------------------|------------------------||
E|------------------------|------------------------||

Verso 2:
     Em
You take 
   Bm
a vow
   Am          C
never to back down
        G          C           Em
Yeah we come all together for you

         Em
And my dreams 
      Bm
are bound 
      Am          C
to come true somehow
        G          C           Em
Yeah we come all together for you

Refrão:
Em7           Em6
Remember the shine
Em5+                 Em
Let my love take you high
Em7           Em6
Youve nothing to lose
Em5+                 Em
Youre just a boy with the blues

Em7           Em6
Remember the smile
Em5+                 Em
Let my love take you high
Em7           Em6
Ive nothing to lose
Em5+                 Em
Im just a boy with the blues yeah

Solo de Guitarra:

    Em          Bm      Am          C
E|0-0-0-0-----0-0-0-0-----|0-0-0-0-----0-0-0-0-----|
B|0-0-0-0-----0-0-0-0-----|1-1-1-1-----1-1-1-1-----|
G|0-0-0-0-----2-2-2-2-----|2-2-2-2-----0-0-0-0-----|
D|2-2-2-2-----2-2-2-2-----|2-2-2-2-----2-2-2-2-----|
A|2-2-2-2-----2-2-2-2-----|0-0-0-0-----3-3-3-3-----|
E|0-0-0-0-----------------|------------------------|

    G           C            Em
E|------------------------|------------------------|
B|0-----------------------|------------------------|
G|2b4---2--0--2--0--------|------------------------|
D|------------------0--2--|------------------------|
A|------------------------|------------------------|
E|------------------------|------------------------|

    Em          Bm      Am          C
E|------------------------|------------------------|
B|0--------------------0--|------------------------|
G|2b4---2--0--2--0--0--2b4|---2--0--2--0-----------|
D|------------------------|------------------------|
A|------------------------|------------------------|
E|------------------------|------------------------|

    G           C        Em
E|------------------------|------------------------||
B|0-----------------------|------------------------||
G|2b4---4200--2--0--------|------------------------||
D|------------------0--2--|------------------------||
A|------------------------|------------------------||
E|------------------------|------------------------||

Outro:
Em        Bm      Am        C        G          C        Em     (8x)
Come on together, come on together, come on together for you... 

( Em )

Clipes