busca

Digsy's Dinner

Oasis

Off of Definitely Maybe
Tabbed by Mike Crowder on 19 January, 2000
Email me at M*o with comments or corrections

Intro/Verse

G----------------------------------------------------------
D----------------------------------------------------------
A-----------------5--55-5-5------------5--55-5-5---------
E-5-5-5-5-4-4-4-4------------0--00-0-0------------0--00-0

G-------------------
D-------------------
A---5-5-5-5---------
E-0---------0-0-0-0-

Chorus

G----------------------------------------------------------
D----------------------------------------------------------
A---------------------------------2-2-2-2-2-2-2-2-
E-2-2-2-2-2-2-2-2-5-5-5-5-5-5-5-5-----------------4-4-4-4-4

G-------
D-------
A-------
E-4-4-4-

The song ends on the alternating E/D bit at the end of the verse. 

That's it, it's a very easy and fun song to play.

Clipes