Fuckin In The Bushes

Oasis

A
123
X02220
B
234
X24442
C
123
X32010
Tom: G
Not a bad start to the album, but not great. I've tabbed it out as best 
as
I can. Enjoy.

*Intro*:

        Drums x2

        We put this festival on you bastards, with a lotta love.

#1t1##1t2#e|-------------------|
B|-pick slide--------|
G|-----------------9-| 
D|-x/--------------9-|
A|-x/--------------7-| 
E|-x/----------------|#/1t2##/1t1#
        
        We marched one year for you pigs.
        And you want to break our walls down? And you wanna destroy us?
        Well you go to hell!

*Verse*:

#2t1##2t2#e|--------------------------|
B|--------------------------|
G|--------------------------|
D|--------------------------|
A|---------------/7-5-5h7-7-|
E|--0-0-0-3p0---------------|#/2t2##/2t1#

Bass joins in after 4 times. Keep repeating this riff.
Then these chords are played after 8 times. 

#3t1#      A      B  C
#3t2#e|----5------7--8----|
B|----5------7--8----| 
G|----6------8--9----|
D|----7------9--10---|
A|----7------9--10---|
E|----5------7---8---|#/3t2##/3t1#

Then this is played after another 16 times :

*Bridge*:

#4t1##4t2#e|---------------------|----------------------|------------------
B|---------------------|----------------------|------------------
G|---------------------|----------------------|------------------
D|--7b9p7--------------|--7b9p7---------------|-7b9p7------------
A|--------7-7-7-7-7-7--|--------7-7-7-7-7-7---|-------7-7-7-7-7-7
E|---------------------|----------------------|------------------#/4t2##/4t1#

#5t1##5t2#e|---------------------|
B|---------------------|
G|---------------------|
D|--7b9p7----7b9p7-----|
A|--------7--------7-7-|
E|---------------------|#/5t2##/5t1#


*Chorus*:

        Kids running around naked, fucking in the bushes.

#6t1##6t2#e|-------------------------------|
B|------------8p5----------------|
G|--7b9-----------7p5------------|     x 4      (Riff 1)
D|--------------------7p5--------|
A|---hold bend-------------7p5---|
E|-------------------------------|#/6t2##/6t1#

#7t1##7t2#e|---------------5--8b10--|-8-5-8-5--8p5------------------------|
B|-------8----------------|--------------8p5---------8p5--------|
G|--7b9~~~~~~9------------|-------------------7p5--------7p5----|
D|------------------------|----------------------7p5---------7--|
A|----hold bend-----------|-------------------------------------|
E|------------------------|-------------------------------------| #/7t2##/7t1#

        I love it!

*Then repeat the bridge, with slight variation.*

*Repeat Chorus*. (Only using riff 1)

        Room for everybody here, yes all are welcome. Yes indeed
        I love them. 
        Fun. Nice. Life. Youth. Beautiful. I'm all for it. 

*Repeat Riff 1 to fade.*

        Room for everybody here, yes all are welcome. Yes indeed
        I love them. 
        Fun. Nice. Life. Youth. Beautiful. I'm all for it. 
Composição: Colaboração e revisão: