busca

Go Let It Out

Oasis

Tom: C
Autor: Noel Gallagher

Acordes
-------
A7    (x02020)
D     (xx0232)
Fmaj7 (x33210)
G     (320033)
Cadd9 (x32030)

Intro
-----
A7

Verso 1
-------
A7
Paint no illusion try to click with whatcha got
A7
Taste every potion 'cause if yer like yerself a lot

Refrão
------
          D
Go let it out
          Fmaj7    G
Go let it in
          A7
Go let it out

(Pick up the bass!)

Verso 2
-------
A7
Life is precocious in the most peculiar way
A7
Sister psychosis don't got a lot to say

Refrão
------
              D
She go let it out
              Fmaj7    G
She go let it in
              A7
She go let it out

(Repete)

Ponte
-----

D               Fmaj7      A7          Cadd9
   Is there any wonder why princes and kings?
D                  Fmaj7          A7      Cadd9
   And clowns that caper in their sawdust rings?
D           Fmaj7           A7           Cadd9
   Ordinary people that are like you and me
          G                      D
We're the keepers of their destiny
          G                     D
We're the keepers of their destiny

A7

Verso 3
-------
          A7
I'm goin' leaving this city, I'm goin' drivin' outta town
    A7
And you're coming with me the right time is always now

Refrão
------
             D
So go let it out
              Fmaj7    G
An' go let it in
              A7
An' go let it out

(Repete)

(Repetir Ponte, ps.: G D 4x)

LINK

--2---2----3---3----4---4-----3---3--
----3--------3--------3---------3----
-------------------------------------
0-------0--------0---------0---------
-------------------------------------
-------------------------------------

(x3 até;)

  (Guit. 1)

--2---2----3---3----4---4-----4---4-----4---4-----4---4----
----3--------3--------3---------3---------3---------3------
-----------------------------------------------------------
0-------0--------0---------0---------0---------0-----------
-----------------------------------------------------------
-----------------------------------------------------------

  (Guit. 2)

                                          (feedback)
D|-------------------------------------12~~~~12~~~~12~~~~12~~~~

Refrão 2
--------

          D
Go let it out
          Cadd9  G
Go let it in
          D
Go let it out
             Cadd9   G
Don't let it in
          D
Go let it out
          Cadd9  G
Go let it in
          D
Go let it out
                Cadd9                 G
Don't let it in don't let it in don't let it in


Solo
----
                       BU  BD       BU  BD
E|-----------------------------------------------
B|--7--8--10---8-7-------------------------------
G|------------------11-(12)-11-9--9-(11)-9--7--7-

(x3, até:)

                       BU  BD         S
E|-----------------------------------8/10-10-10-10-10-10-10-10---
B|--7--8--10---8-7-----------------------------------------------
G|------------------11-(12)-11-9--9------------------------------

Final
-----

---4---4-------2---2-----
-----3---3-------3---3---
-------------------------   ---> (n vezes)
0-----------0------------
-------------------------
-------------------------



(Guit. 2: SOLO)

------------------------------------------------------------------------------------
-----------------------------------------------13-(15)-13--10-----------------------
----10----10---------10----10--------10----10------------------12--12-(14)-12--10---
/12----12----12--/12----12----12-/12----12----------------------------------------12
------------------------------------------------------------------------------------
------------------------------------------------------------------------------------

(Repetir ate final)

Rafael Tosta (Tamos ai - Kaos!)

Clipes

Cifra Club Pro

Aproveite o Cifra Club com benefícios exclusivos e sem anúncios
7 dias grátis
Cifra Club Pro
Aproveite o Cifra Club com benefícios exclusivos e sem anúncios
7 dias grátis