Hello

Oasis

Am
123
X02210
Am2
123
X02410
B/C
1234
X3444X
C
123
X32010
E
123
022100
F
234
133211
G
123
320003
G2
12
3X020X
Tom: G
(intro)

#1t1##1t2#E |-0-0-0-0--0-0--0-0-0-0--0-0--0-0-0-0--0-0-------------------
B |-1-1-1-1--1-1--1-1-1-1--1-1--1-1-1-1--1-1-------------------
G |-2-2-2-2--2-2--2-2-2-2--2-2--2-2-2-2--2-2---0-0--0----------
D |-2-2-2-2--3-3--2-2-2-2--3-3--2-2-2-2--3-3---2-2--0----------
A |-0-0-0-0-------0-0-0-0-------0-0-0-0--------3-3--2----------
E |----------------------------------------------------0-3-0---#/1t2##/1t1#

#2t1#(riff that repeats through all the verses in the song)
#2t2#E |-0-0-0-0--0-0--0-0-0-0--0-0--0-0-0-0--0-0-------------------
B |-1-1-1-1--1-1--1-1-1-1--1-1--1-1-1-1--1-1-------------------
G |-2-2-2-2--2-2--2-2-2-2--2-2--2-2-2-2--2-2---0-0--0----------
D |-2-2-2-2--2-2--2-2-2-2--2-2--2-2-2-2--2-2---2-2--0----------
A |-0-0-0-0--3-3--0-0-0-0--3-3--0-0-0-0--3-3---3-3--2----------
E |----------------------------------------------------0-3-0---#/2t2##/2t1#

(verse 1)
Am                                                 C B/C
I don't feel as if I know you, you take up all my time
Am                                                                      C B/C
The days are long and the nights will blow you away, cos the sun don't shine
Am                                                      C B/C
Nobody ever mentions the weather can make or break your day
Am                                               C B/C
Nobody ever seems to remember life is a game we play

(pre-chorus)

  E              Am             F                            G
  We live in the shadows and we had our chance and threw it away
           C           B/C    Am           F                 G2
  and it's never gonna be the same coz the years are falling by like the rain
#3t1##3t2#E |----------------0--------0----0-----------1-----------------3---------------
B |----------------1--------1----1-----------1-----------------3---------------
G |----------------0--------0----2-----------2-----------------4---------------
D |------------------------------2-----------3-----------------5---------------
A |----------3-----------2-------0-----------3-----------------5---------------
E |------------------------------------------1-----------------3---------------#/3t2##/3t1#

(same chords as previous two lines)

And it's never gonna be the same
Till the life I knew comes to my house and says

(main riff)
Hello

(verse 2)
There ain't no sense in feeling lonely, they got no faith in you
But I got a feeling you still owe me, so wipe the shit from your shoe
Nobody ever mentions the weather can make or break your day
Nobody ever seems to remember life is a game we play

(pré-chorus - same as above)

F          G2         Am2
Hello!     Hello!     Hello!

(repeat a bunch of times)

          Am2
said it's good to be back, it's good to be back

(repeat)  F  G2  Am2  a bunch of times, and song ends on Am2
Composição: Gary Glitter / Mike Leander / Noel GallagherColaboração e revisão: Eduardo YokoyamaÉlison Duarte