busca

Hey Hey, My My

Oasis

Tom: C
RIFF
Am                G                 F
E|-----------------|-----------------|-----------------|-----------------|
B|-----------------|-----------------|-----------------|-----------------|
G|-----------------|-----------------|----2----2----2--|----2----2----2--|
D|-----------------|0========--------|----3----3----3--|----3----3----3--|
A|-0----------0-2-3------------2-0--0====-3----3----3--|----3----3----3--|
E|-----------------|---------------3-|-----------------|-----------------|

Am                G                 F
E|-----------------|-----------------|-----------------|-----------------|
B|-----------------|-----------------|-----------------|-----------------|
G|-----------------|-----------------|----2----2----2--|----2----2----2--|
D|-----------------|0========--------|----3----3----3--|----3----3----3--|
A|-0----------0-2-3------------2-0--0====-3----3----3--|----3----3----3--|
E|-----------------|-----------------|-----------------|-----------------|

C                 G                 Am                F
E|-----------------|-----------------|-----------------|-----------------|
B|-----------------|-----------------|----1----1----1--|-----------------|
G|-----------------|0========--2-0---0----2----2----2--|----2----2----2--|
D|--------------0-2----------------2-|----2----2----2--|----3----3----3--|
A|-3----------3----|-----------------|-0---------------|----3----3----3--|
E|-----------------|-----------------|-----------------|-----------------|

Am                G                 F
E|-----------------|-----------------|-----------------|-----------------|
B|-----------------|-----------------|-----------------|-----------------|
G|-----------------|-----------------|----2----2----2--|----2----2----2--|
D|-----------------|0========--------|----3----3----3--|----3----3----3--|
A|-0----------0-2-3------------2-0--0====-3----3----3--|----3----3----3--|
E|-----------------|-----------------|-----------------|-----------------|

Am         G                 F
  Hey      hey       my     my
Am         G                 F
  Rock and roll will never die
        C             G6     Am             F
There's more to the picture, than meets the eye
Am         G                 F
  Hey      hey        my     my

Riff

Am            G                 F
  Out of the blue and into the black
Am             G                     F
  You pay for this but they give you that
      C        G6   Am             F
  And when you die, you can't come back
Am                     G                  F
  When yer out of the blue and into the black

Riff

Am         G                 F
  My      my        hey      hey
Am         G                 F
  Rock and roll is here  to  stay
          C              G6    Am             F
  It's better to burn out than to fade away
Am         G                 F
  My      my        hey      hey

Clipes

Cifra Club Pro

Aproveite o Cifra Club com benefícios exclusivos e sem anúncios
7 dias grátis
Cifra Club Pro
Aproveite o Cifra Club com benefícios exclusivos e sem anúncios
7 dias grátis