busca

Morning Glory

Oasis

Tom: G
      Em             D5   Em             D5
E|----------------------------------------|
B|-----------------3-------------------3--|
G|-----------------2-------------------2--|
D|-----2-----------0-------2-----------0--|
A|-----2-----0--2----------2-----0--2-----|
E|--0-----3-------------0-----3-----------|


Em                   D
All your dreams are made
              Em                           D
When you're chained to the mirror and the razor blade
   Em                D                   A7sus4  Cadd9
Today's the day that all the world will see
  Em                D
Another sunny afternoon
 Em                         D
Walking to the sound of my favorite tune
   Em                         D                A7sus4  Cadd9
Tomorrow never knows what it doesn't know too soon

 Dsus2                 Cadd9
Need a little time to wake up
 Dsus2                 Cadd9
Need a little time to wake up wake up
 Dsus2                 Cadd9
Need a little time to wake up
 D
Need a little time to rest your mind
      B
You know you should so I guess you might as

 Em   D5
Well
  A7sus4          Cadd9
What's the story morning glory
 Em   D5
Well
     A7sus4                Cadd9
You need a little time to wake up wake up
 Em   D5
Well
  A7sus4          Cadd9
What's the story morning glory
 Em   D5
Well
 A7sus4                Cadd9
Need a little time to wake up wake up



[Solo]


     Em                 D                    Em                      D
E|-------------------------------------------------12--------------------------|
B|-12b13p12--------------------------------------------------------------------|
G|----------14-12-14-12------------12-14-12--14b16----14-12-14-12-14-12--------|
D|----------------------14---12-14---------------------------------------14-12-|
A|-----------------------------------------------------------------------------|
E|-----------------------------------------------------------------------------|

                 Em                     D                    Em
E|-----------------------------------------------------------------12-12-------|
B|--------------12h13p12-------------------------------------------------------|
G|----12-----12----------14-12-14-12-14-12---------12-14-12--14b16-------------|
D|-14-----14---------------------------------12-14-----------------------------|
A|-----------------------------------------------------------------------------|
E|-----------------------------------------------------------------------------|

                                           D
E|--------12-12-------12-12-------12-12---------12-12-------------------------|
B|----------------------------------------------------------------------------|
G|--14b16-------14b16-------14b16--------14b16--------------------------------|
D|----------------------------------------------------------------------------|
A|----------------------------------------------------------------------------|
E|----------------------------------------------------------------------------|


Em                   D
All your dreams are made
              Em                           D
When you're chained to the mirror and the razor blade
 Em                  D                   A7sus4  Cadd9
Today's the day that all the world will see
  Em                D
Another sunny afternoon
 Em                         D
Walking to the sound of my favorite tune
 Em                       D                A7sus4  Cadd9
Tomorrow never knows what it doesn't know too soon


 Dsus2                 Cadd9
Need a little time to wake up
 Dsus2                 Cadd9
Need a little time to wake up wake up
 Dsus2                 Cadd9
Need a little time to wake up
 D
Need a little time to rest your mind
      B
You know you should so I guess you might as

 Em   D5
Well
  A7sus4          Cadd9
What's the story morning glory
 Em   D5
Well
     A7sus4                Cadd9
You need a little time to wake up wake up
 Em   D5
Well
  A7sus4          Cadd9
What's the story morning glory
 Em   D5
Well
 A7sus4                Cadd9
Need a little time to wake up wake up
 Em   D5
Well
  A7sus           Cadd9
What's the story morning glory
 Em   D5
Well
 A7sus4                Cadd9
Need a little time to wake up wake up
 Em   D5
Well
  A7sus4          Cadd9
What's the story morning glory
 Em   D5
Well
 A7sus4                Cadd9
Need a little time to wake up wake up

Clipes