Slide Away

Oasis

Am7
12
X02010
C
123
X32010
D/F#
1234
2X0232
D7
123
XX0212
E
123
022100
F
234
133211
F2
234
135211
Fmaj7
1234
1X221X
G
123
320003
G2
12
3X020X
G7
34
353433
Tom: G
[Intro]
                    
#1t1##1t2#E|------------------3--0-----3-----------0----|
B|------------------1----1-0---0-------1------|
G|---5h7^^^------0--0----------------0--------|
D|-------------2-------------------3----------| 
A|-----------0--------------------------------|
E|--------------------------------------------|#/1t2##/1t1#

        
#2t1##2t2#E|-------3--0-----3----------0----------------|
B|-------1----1-0---0------1------------------|
G|-------0---------------0--------------------|
D|-------2-------------3----------------------|
A|--0-----------------------------------------|
E|--------------------------------------------|#/2t2##/2t1#

#3t1#     Am7          G     F           Am7       G        F
#3t2#E|------------------------------------------------------|
B|------------------------------------------------------|
G|---7b9----7b9r7-5-----------------5-5-----------------|
D|------------------7-----------5h7-----7----------7----|
A|--------------------------5h7---------------6p5----0--|
E|------------------------------------------------------|#/3t2##/3t1#

  Am7             G                  F
Slide away - and give it all you've got
 Am7        G                F
My today - fell in from the top
Am7                  G                   F
I dream of you - and all the things you say
Am7                         G  F
I wonder where you are now

Hold me down - all the world's asleep
I need you now - you've knocked me off my feet
I dream of you - we talk of growing old
But you said please don't!


  G2         F2     G2            F2
Slide in, baby - together we'll fly
G2             F2            G                              G7
I've tried praying - and I know just what you're saying to me


                 C
Now that you're mine 
              G
we'll find a way
                Fmaj7
of chasing the sun
              Am7
Let me be the one
                 G
Who shines with you
        D7                                  F2
In the morning when you don't know what to do
          C
Two of a kind
              G
We'll find a way
                  Fmaj7
To do what we've done
              Am7                   G
Let me be the one that shines with you
                   F2  D/F#         F2   D/F#
And we can slide away       slide away
  G  E
Away

[Solo]

#4t1#   Am7   G          F         Am7   G           F               Am7
#4t2#E|---------5-------------------------------8--8h10p8-----------------|
B|------------5-----------------------8h10-----------10--8--10--8h10-|
G|-7b9-----------7--5--5h7--5----------------------------------------|
D|----------------------------5h7------------------------------------|
A|-------------------------------------------------------------------|
E|-------------------------------------------------------------------|#/4t2##/4t1#

#5t1#    G          F            Am7  G       F G    F           G
#5t2#E|-------------------------------------------------------------------|
B|-------------------------------------------------------------------|
G|--7b9--b9r7--5--7p5----------------------19b21--19b21r19--17-------|
D|--------------------7--5--5h7------7--------------------------19---|
A|-------------------------------6b5----0----------------------------|
E|-------------------------------------------------------------------|#/5t2##/5t1#

#6t1#   F                      G    F             G
#6t2#E|-------------------------------------------------------------------|
B|-------------------------------------------------------------------|
G|-------------17--19--17-19b21-19b21-b21r19-17----------------------|
D|-------17h19----------------------------------19--------17h19-17---|
A|-17h19--------------------------------------------17h19------------|
E|-------------------------------------------------------------------|#/6t2##/6t1#

#7t1#   G7
#7t2#E|-------------------------------------------------------------------|
B|-------------------------------------------------------------------|
G|-------------------------------------------------------------------|
D|-------------------------------------------------------------------|
A|--19--17-----------------------------------------------------------|
E|----------20--17--15h17--------------------------------------------|#/7t2##/7t1#

  
#8t1#    F2        D/F#
#8t2#E|-------------------------------------------------------------------|
B|-------------------------------------------------------------------|
G|--7b9--b9r7--5-------------5--7--5---------------------------------|
D|----------------7------5h7-----------------------------------------|
A|-------------------5h7---------------------------------------------|
E|-------------------------------------------------------------------|#/8t2##/8t1#
Composição: Colaboração e revisão: Marcos Paulo