Stop Crying Your Heart Out

Oasis

A4
123
X02230
Bm
234
X24432
Bm/A
123
X0443X
Bm11
1234
X24430
D
123
XX0232
D/A
123
X0X232
E7
1234
022130
Em7(9)
123
020032
G
123
320003
Tom: G
#1t1#Intro:
   Bm
#1t2#E|-----------------------------------------
B|-3--3--3--3--3--3--3--3----3-------------
G|-4--4--4--4--4--4--4--4----4-------------
D|-4--4--4--4--4--4--4--4----4-------------
A|-2-----------2----------2-----2----------
E|-----------------------------------------#/1t2##/1t1#

Primeira Parte:
     Bm
Hold on
     Bm/A
Hold on
           E7
Don't be scared
                            G
You'll never change what's been and gone

           Bm
May your smile
      Bm/A
Shine on
            E7
Don't be scared
                  G
Your destiny may keep you warm.

#2t1#   Bm
#2t2#E|-----------------------------------------
B|-3---3---3---3----3---3---3---3----------
G|-4---4---4---4----4---4---4---4----------
D|-4---4---4---4----4---4---4---4----------
A|-2-2---2---2---2--2-2---2---2---2--------
E|-----------------------------------------#/2t2##/2t1#

#3t1#   Bm/A
#3t2#E|-----------------------------------------
B|-3---3---3---3----3---3---3---3----------
G|-4---4---4---4----4---4---4---4----------
D|-4---4---4---4----4---4---4---4----------
A|-0-0---0---0---0--0-0---0---0---0--------
E|-----------------------------------------#/3t2##/3t1#

#4t1#   E7
#4t2#E|-----------------------------------------
B|-3---3---3---3----3---3---3---3----------
G|-1---1---1---1----1---1---1---1----------
D|-2---2---2---2----2---2---2---2----------
A|-----------------------------------------
E|-0-0---0---0---0--0-0---0---0---0--------#/4t2##/4t1#

#5t1#   G
#5t2#E|-----------------------------------------
B|-0---0---0---0----0---0---0---0----------
G|-0---0---0---0----0---0---0---0----------
D|-0---0---0---0----0---0---0---0----------
A|-----------------------------------------
E|-3-3---3---3---3--3-3---3---3---3--------#/5t2##/5t1#

#6t1#(variação)
   G
#6t2#E|-----------------------------------------
B|-0---0---0---0----2---2---2---2----------
G|-0---0---0---0----2---2---2---2----------
D|-0---0---0---0----0---0---0---0----------
A|-----------------------------------------
E|-3-3---3---3---3--3-3---3---3---3--------#/6t2##/6t1#

Refrão:
                        D
'Cause all of the stars
             A4
Are fading away
                 Em7(9)
Just try not to worry
                     G
You'll see them someday
               D
Take what you need
                E7
And be on your way
                      G
And stop crying your heart out

#7t1#   G
#7t2#E|----2--0--2-----2--0--2----------------
B|-3--3--3--3--3--3--3--3----------------
G|-0-----0-----0-----0-------------------
D|-0-----------0-------------------------
A|---------------------------------------
E|-3-----------3-------------------------#/7t2##/7t1#

#8t1##8t2#E|----2--0--2-----2--0--2----------------
B|-3--3--3--3--3--3--3--3----------------
G|-2-----2-----2-----2-------------------
D|-0-----------0-------------------------
A|---------------------------------------
E|-3-----------3-------------------------#/8t2##/8t1#

Primeira Parte - com variação na letra:
    Bm11
Get up (get up)
     Bm/A
Come on (come on)
             E7
Why're you scared? (I'm not scared)
                            G
You'll never change what's been and gone

Refrão:
                        D
'Cause all of the stars
             A4
Are fading away
                 Em7(9)
Just try not to worry
                     G
You'll see them someday
               D
Take what you need
                E7
And be on your way
                      G
And stop crying your heart out

#9t1#   G
#9t2#E|----2--0--2-----2--0--2----------------
B|-3--3--3--3--3--3--3--3----------------
G|-0-----0-----0-----0-------------------
D|-0-----------0-------------------------
A|---------------------------------------
E|-3-----------3-------------------------#/9t2##/9t1#

#10t1##10t2#E|----2--0--2-----2--0--2----------------
B|-3--3--3--3--3--3--3--3----------------
G|-2-----2-----2-----2-------------------
D|-0-----------0-------------------------
A|---------------------------------------
E|-3-----------3-------------------------#/10t2##/10t1#

Segunda Parte: D  A4  Em7(9)  G  D  E7  G

#11t1#   D
#11t2#E|----2--0--2-----2--0--2----------------
B|-3--3--3--3--3--3--3--3----------------
G|-2-----------2-------------------------
D|-0-----------0-------------------------
A|---------------------------------------
E|---------------------------------------#/11t2##/11t1#

#12t1#   D/A
#12t2#E|----2--0--2-----2--0--2----------------
B|-3--3--3--3--3--3--3--3----------------
G|-2-----------2-------------------------
D|-2-----------2-------------------------
A|-0-----------0-------------------------
E|---------------------------------------#/12t2##/12t1#

#13t1#   Em7(9)
#13t2#E|----2--0--2-----2--0--2----------------
B|-3--3--3--3--3--3--3--3----------------
G|-2-----------2-------------------------
D|---------------------------------------
A|-0-----------0-------------------------
E|---------------------------------------#/13t2##/13t1#

#14t1#   G
#14t2#E|----2--0--2-----2--0--2----------------
B|-3--3--3--3--3--3--3--3----------------
G|-0-----------0-------------------------
D|-0-----------0-------------------------
A|---------------------------------------
E|-3-----------3-------------------------#/14t2##/14t1#

#15t1#(Variação)
   E7
#15t2#E|----2--0--2-----2--0--2----------------
B|-3--3--3--3--3--3--3--3----------------
G|-1-----1-----1-----1-------------------
D|-2-----------2-------------------------
A|---------------------------------------
E|-0-----------0-------------------------#/15t2##/15t1#

Refrão:
                        D
'Cause all of the stars
             A4
Are fading away
                 Em7(9)
Just try not to worry
                     G
You'll see them someday
               D
Take what you need
                A4
And be on your way
                      G
And stop crying your heart out
                      D
Where are all of the stars?
                        D
'Cause all of the stars
             A4
Are fading away
                 Em7(9)
Just try not to worry
                     G
You'll see them someday
               D
Take what you need
                A4
And be on your way

                      Em7(9)   G (4x)
And stop crying your heart out

( Em7(9)  G ) (4x)

Refrão:

(Repetições do trecho final)

#16t1#   Em7(9)
#16t2#E|----2--0--2-----2--0--2----------------
B|-3--3--3--3--3--3--3--3----------------
G|-0-----0-----0-----0-------------------
D|-0-----------0-------------------------
A|---------------------------------------
E|-0-----------0-------------------------#/16t2##/16t1#

#17t1#   G
#17t2#E|----2--0--2-----2--0--2----------------
B|-3--3--3--3--3--3--3--3----------------
G|-0-----0-----0-----0-------------------
D|---------------------------------------
A|---------------------------------------
E|-3-----------3-------------------------#/17t2##/17t1#

Parte Final:

#18t1#   D
#18t2#E|-------2--0--0----0--0--0--------------
B|-3--3--3--3--3----3--3--3--------------
G|-2--2-----2----2-----------------------
D|-0--------0----0-----------------------
A|---------------------------------------
E|---------------------------------------#/18t2##/18t1#

#19t1#   A4
#19t2#E|-------2--0--0----0--0--0--------------
B|-3-----3--3--3----3--3--3--------------
G|-2--------2----2--2--2--2--------------
D|-2--------2----2-----------------------
A|-0--------0----0-----------------------
E|---------------------------------------#/19t2##/19t1#

#20t1#   Em7(9)
#20t2#E|----2-----0---------2--0-0---0---------
B|-3--3-3-3-3---0-3---3--3-3---3-3-3-----
G|-0--0-0-0-0---0-0-0----0-0---0-0-0-----
D|-2----2-2-2---0-0-0----0-0-0-0-0-0-----
A|---------------------------------------
E|-0--------0-0---3-3--------3---3-------#/20t2##/20t1#

#21t1#   Em7(9)             G            D
#21t2#E|----------0----------------2-----2-----
B|-3----0---3------0--3---3--3--3--3-----
G|-0----0---0-0-0--0--0---0--0--0--2-----
D|-2--------2-2-2--0--0---0--0--0--0-----
A|---------------------------------------
E|-0------0-0-0---------3----------------#/21t2##/21t1#
Composição: Noel GallagherColaboração e revisão: Caroline LeroyVicente Souzaeder jrRodrigo Bini
Videoaula Stop Crying Your Heart Ou (aula de violão completa)