Supersonic

Oasis

A
123
X02220
B
234
X24442
C#7
1234
X4342X
D
123
XX0232
E
123
022100
E5
12
022XXX
F#5
134
244XXX
F#m
34
244222
Tom: G
[Intro]

#1t1##1t2#E|-------0----------------------------------|
B|---------0--------------------------------|
G|-----2-----2---------2--------------------|
D|---4---------4-------2---4----------------|
A|-4-------------4-----0---2----------------|
E|------------------------------------------|#/1t2##/1t1#


[Riff 1]

#2t1##2t2#E|---7--------------------------------------|
B|-----5------------------------------------|
G|---------6--------------------------------|  
D|------------------------------------------|
A|------------------------------------------|
E|------------------------------------------|#/2t2##/2t1#

[Riff 2]

#3t1##3t2#E|------------------------------------------|
B|------------------------------------------|    
G|------------------------------------------|
D|-----------4------------------------------|     
A|----2b---0--------------------------------|
E|------------------------------------------|#/3t2##/3t1#

        F#5   E5    F#5  A  B
I need to be myself
         F#m  E5  F#5    A  B
I can't be no one else
     F#m     E5   F#5      A             B
I'm feeling supersonic, give me gin and tonic
         F#m E5 F#5      A           B
You can have it all but how much do you want it?
          F#m     E5  F#5  A  B
You make me laugh
         F#m E5 F#5    A  B
Give me your autograph
         F#m     E5 F#5  A       B
Can I ride with you in your BMW?
         F#m  E5   F#5   A     B
You can sail with me in my yellow submarine


[Ponte]

[Riff 1]

#4t1##4t2#E|--------------------------------------|
B|--------------------------------------|
G|--------------------------------------| 
D|--------------------------------------|
A|---2-2-4-2-2-2-4-2--------------------|
E|-0-0-0-0-0-0-0-0-0--------------------|#/4t2##/4t1#

[Riff 2]

#5t1##5t2#E|---7----------------------------------|
B|-----5--------------------------------|
G|---------6----------------------------|  
D|--------------------------------------|
A|--------------------------------------|
E|--------------------------------------|#/5t2##/5t1#

[Riff 3]

#6t1##6t2#E|--------------4-----------------------|
B|-----6---------------6----------------|
G|-4-------4--------------6---4---------|     
D|-6---------6------------------6-------|
A|--------------------------------------|
E|--------------------------------------|#/6t2##/6t1#

             E
You need to find out
                                      F#m
'Cos no one's gonna tell you what I'm on about
             E
You need to find a way to what you wanna say
C#7
    But before tomorrow

[Refrão]

[Riff]

#7t1##7t2#E|-------------------------------------|
B|-------------------------------------|
G|-------------------------------------|  
D|------2--------------------2---------|
A|-2s4----4--2---0---0---2s4---4-------|
E|-------------------------------2-----|#/7t2##/7t1#

      D         A         E        F#m
'Cos my friend said he'd take you home
    D         A     E     F#m
He sits in a corner all alone
 D       A        E    F#m
He lives under a waterfall
 D          A        E         F#m                 D  A
Nobody can see him, nobody can ever hear him call

[Solo]

#8t1##8t2#E|------------------------------------------------------------------|
B|-------------------------------------------------------------17---|
G|--16B-16B|--14---16--14----------14-------------16B|--16B|--14----|  
D|-----------------------16-14-16----16--14-------------------------|
A|------------------------------------------------------------------|
E|------------------------------------------------------------------|#/8t2##/8t1#

#9t1##9t2#E|------------------------------------------------------------------|
B|------------------------------------------------------------------|
G|--16b--16--14-------14h16p14-----14---16B-16B|--14--16--14--------|  
D|--------------14h16----------16---------------------------16-14-16|
A|------------------------------------------------------------------|
E|------------------------------------------------------------------|#/9t2##/9t1#

#10t1##10t2#E|------------------------------------------------------------------|
B|------------------------17----------------------------------------|
G|14--------16B|--16B|--14------16b-16-14--------14h16p14----14-----|  
D|---16-14-------------------------------14h16----------16----------|
A|------------------------------------------------------------------|
E|------------------------------------------------------------------|#/10t2##/10t1#

#11t1##11t2#E|--0------------4--------------------------------------------------|
B|--0------------6--------------------------------------------------|
G|--1------------4--------------------------------------------------|
D|---------------6-----------------------------------4--------------|
A|---------------4----------------------2b-------0------------------|
E|----------0-------------------------------------------------------|#/11t2##/11t1#

          F#5   E5  F#5  A  B
You need to be yourself
         F#5  E5  F#5   A  B
You can be no one else
    F#5   E5      F#5      A         B
I know a girl called Elisa, she's into Alka Seltzer
      F#5  E5     F#5      A         B
She sniffs it through a cane in a supersonic train

           F#5    E5    F#5  A  B
And she makes me laugh
          F#5   E5   F#5  A  B
I got her autograph
     F#5     E5     F#5   A         B
She done it with a doctor on a helicopter
  F#5   E5        F#5     A            B
She's sniffin in her tissue, sellin' the big issue

         E
And she finds out
                                       F#m
"Cos no one is gonna tell you what I'm on about
              E
She needs to find a way for what she wants to say
C#7
    But before tomorrow

      D         A         E        F#m
'Cos my friend said he'd take you home
    D         A     E     F#m
He sits in a corner all alone
 D       A        E    F#m
He lives under a waterfall
 D          A        E         F#m                D A
Nobody can see him, nobody can ever hear him call



#12t1##12t2#E|-------------------------------------------------------------------|
B|-------------------------------------------------------------17----|
G|--16B-16B|--14---16--14----------14-------------16B|--16B|--14-----|       
D|-----------------------16-14-16----16--14--------------------------|
A|-------------------------------------------------------------------|
E|-------------------------------------------------------------------|#/12t2##/12t1#

#13t1##13t2#E|-------------------------------------------------------------------|
B|-------------------------------------------------------------------|
G|--16b--16--14-------14h16p14-----14---16B-16B|--14--16--14---------| 
D|--------------14h16----------16---------------------------16-14-16-|
A|-------------------------------------------------------------------|
E|-------------------------------------------------------------------|#/13t2##/13t1#

#14t1##14t2#E|-------------------------------------------------------------------|
B|-------------------------------------------------------------------|
G|14-------------14---16b--16b--16b--16b---16bp14---14-14---14-14h16-|  
D|---16-14----16---------------------------------16------------------|
A|-------------------------------------------------------------------|
E|-------------------------------------------------------------------|#/14t2##/14t1#

#15t1##15t2#E|-------------------------------------------------------------------|
B|-------------------------------------------------------------------|
G|-14----16B|--16B|--14--16---14----------14-------------------------|
D|-----------------------------16-14-16----16-14---16B|--16B|--14--16|
A|-------------------------------------------------------------------|
E|-------------------------------------------------------------------|#/15t2##/15t1#

#16t1##16t2#E|-------------------------------------------------------------------|
B|-------------------------------------------------------------------|
G|-16b--16--14------- 14h16-------14--16B-16B|--14--16--14---------14| 
D|--------------14h16-------14h16-------------------------16-14-16---|
A|-------------------------------------------------------------------|
E|-------------------------------------------------------------------|#/16t2##/16t1#

#17t1##17t2#E|-------------------------------------------------------------------|
B|-------------------------------------------------------------------|
G|--------------14----------14---16b---16b-16b-16b-----16--16--0-----|  
D|--16--14--16-----16-14-16------------------------------------------|
A|-------------------------------------------------------------------|
E|-------------------------------------------------------------------|#/17t2##/17t1#

#18t1##18t2#E|-------------------------------------------------------------------|
B|-------------------------------------------------------------------|
G|--14-----14---14----14--14----14-----14------14-----14-----14---14-|  
D|--14h16--16---14----14--14h16-14-----14h16---14-----14h16--14---14-|
A|-------------------------------------------------------------------|
E|-------------------------------------------------------------------|#/18t2##/18t1#

#19t1##19t2#E|-------------------------------------------------------------------|
B|-------------------------------------------------------------------|
G|--14----14--14---14--14-----------14---16-16b---16b--16b----14---0-|  
D|--14h16-----14---14--14h16--14----14-------------------------------|
A|-------------------------------14----------------------------------|
E|-------------------------------------------------------------------|#/19t2##/19t1#
                                                                         
#20t1##20t2#E|-------------------------------------------------------------------|      
B|-------------------------------------------------------------------|  
G|--14----14--14---14-14-14----14----14--14----14----14--------14--14|
D|--14h16-----14---14-14-14h16-14----14--14h16-14----14h16-14--14--14|
A|-------------------------------------------------------------------|
E|-------------------------------------------------------------------|#/20t2##/20t1#

#21t1##21t2#E|-------------------------------------------------------------------|
B|-------------------------------------------------------------------|
G|--14------14----14--16--14---16b--16b-16b-16bp14-----14------------|  
D|--14h16---14-------------------------------------16----------------|
A|-------------------------------------------------------------------|
E|-------------------------------------------------------------------|#/21t2##/21t1#
Composição: Noel GallagherColaboração e revisão: Marcos PauloItaloRebeccalucas limae mais 1