busca

The Importance Of Being Idle

Oasis

Tom: C
Intro: Am  E (3x)
      (Am  E  Am)
      (Am)

  Am                    F
I sold my soul for the second time
         C             B7    E
Cause the man, it don't pay me
   Am                    F
I begged my landlord* for some more time
          C                 B7       E
He said "son, the bills are waiting"
    Am                       F
My best friend called me the other night
          C           B7     E
He said "man, are you crazy?"
    Am                    F
My girlfriend told me to get a life
           C          B7  E
She said "boy,  you lazy"

Dm           Am
But i don't mind
Dm                                    Am
As long as there's a bed beneath the stars that shine
Dm      Am
I'll be fine
        F
If you give me a minute, a man's got a limit
   G                       E
I can't get a life if my heart's not in it...

   Solo: Am  F  C  B7  E
E|-------------|----------------|-------------------|
B|-------------|-13-12----------|-------------------|
G|---7-9-7-5---|-------14-12----|-12-14-12----------| (2x)
D|-7---------7-|-------------14-|----------14-13-14-|
A|-------------|----------------|-------------------|
E|-------------|----------------|-------------------|

E|-10/12-12-10-8----8-10/12-12-10-8----8-10/12-15-10-8----8----|
B|---------------10-----------------10-----------------10---12-|
G|-------------------------------------------------------------|
D|-------------------------------------------------------------|
A|-------------------------------------------------------------|
E|-------------------------------------------------------------|

E|-10/12-12-10-8----8-10/12-15-10-8----8-10/12----|
B|---------------10-----------------10---------12-|
G|------------------------------------------------|
D|------------------------------------------------|
A|------------------------------------------------|
E|------------------------------------------------|

Dm       Am
I don't mind
Dm                                    Am
As long as there's a bed beneath the stars that shine
Dm       Am
I'll be fine
        F
If you give me a minute, a man's got a limit
   G                      E
I can't get a life if my heart's not in it...

Intro: Am  E (3x)
       (Am  E  Am)
       (Am)

Am                   F
I lost my faith in the summertime
          C         B7    E
Cause it don't stop raining
    Am                 F
The sky all day is as black as night
         C       B7   E
But i'm not complaining
  Am                   F
I begged my doctor for one more line
          C           B7    E
He said "son... words fail me"
    Am                  F
It ain't no place to be killing time
         C       B7  E
I guess i'm just lazy

Dm       Am
I don't mind
Dm                                    Am
As long as there's a bed beneath the stars that shine
Dm      Am
I'll be fine
        F
If you give me a minute, a man's got a limit
   G                      E
I can't get a life if my heart's not in it...

Clipes

Cifra Club Pro

Aproveite o Cifra Club com benefícios exclusivos e sem anúncios
7 dias grátis
Cifra Club Pro
Aproveite o Cifra Club com benefícios exclusivos e sem anúncios
7 dias grátis