Espelhos Mágicos

Oficina G3

Principal
A5
X0P22XX
B5
134
X244XX
E5
0P22XXX
F#5
134
244XXX
G5
134
355XXX
Tom: G
[Introdução] B5  A5  G5  (Riff 1)
             B5  G5  A5
             B5  A5  G5  (Riff 1)
             B5  G5  A5
             B5  (Riff 2)

#1t1#   B5
#1t2#E|------------------------------------------|
B|---------3/5-3~---3-----------------------|
G|---------2/4-2~---2-----------------------|
D|---------------------X-X------------------|
A|-2-2-2-2-------------X-X------------------|
E|---------------------X-X------------------|#/1t2##/1t1#

#2t1#   A5           G5          (Riff 1)
#2t2#E|------------------------------------------|
B|------------------------------------------|
G|-2------2-----0---------------------------|
D|-2------2-X-X-0--------------2-5-4-2------|
A|-0------0-X-X--------------5---------5----|
E|----------X-X-3---------------------------|#/2t2##/2t1#

#3t1#   B5
#3t2#E|------------------------------------------|
B|---------3/5-3~---3-----------------------|
G|---------2/4-2~---2-----------------------|
D|---------------------X-X------------------|
A|-2-2-2-2-------------X-X------------------|
E|---------------------X-X------------------|#/3t2##/3t1#

#4t1#   G5        A5
#4t2#E|------------------------------------------|
B|----3------5------------------------------|
G|------4------6----------------------------|
D|-/5-----5/-----7\-------------------------|
A|------------------------------------------|
E|------------------------------------------|#/4t2##/4t1#

#5t1#   B5
#5t2#E|------------------------------------------|
B|---------3/5-3~---3-----------------------|
G|---------2/4-2~---2-----------------------|
D|---------------------X-X------------------|
A|-2-2-2-2-------------X-X------------------|
E|---------------------X-X------------------|#/5t2##/5t1#

#6t1#   A5           G5          (Riff 1)
#6t2#E|------------------------------------------|
B|------------------------------------------|
G|-2------2-----0---------------------------|
D|-2------2-X-X-0--------------2-5-4-2------|
A|-0------0-X-X--------------5---------5----|
E|----------X-X-3---------------------------|#/6t2##/6t1#

#7t1#   B5
#7t2#E|------------------------------------------|
B|---------3/5-3~---3-----------------------|
G|---------2/4-2~---2-----------------------|
D|---------------------X-X------------------|
A|-2-2-2-2-------------X-X------------------|
E|---------------------X-X------------------|#/7t2##/7t1#

#8t1#   G5        A5
#8t2#E|------------------------------------------|
B|----3------5------------------------------|
G|------4------6----------------------------|
D|-/5-----5/-----7\-------------------------|
A|------------------------------------------|
E|------------------------------------------|#/8t2##/8t1#

#9t1#   B5
#9t2#E|------------------------------------------|
B|------------------------------------------|
G|------------------------------------------|
D|-4--4-4-4--4-4-4--4-4-4--4-4-4--4-4-4-----|
A|-2--2-2-2--2-2-2--2-2-2--2-2-2--2-2-2-----|
E|------------------------------------------|#/9t2##/9t1#

#10t1##10t2#E|------------------------------------------|
B|------------------------------------------|
G|------------------------------------------|
D|-4-4-4--2--2h4--4--4-4-4--4-4-4--0--------|
A|-2-2-2--0--0h2--2--2-2-2--2-2-2--0--------|
E|------------------------------------------|#/10t2##/10t1#

#11t1#  (Riff 2)
#11t2#E|------------------------------------------|
B|------------------------------------------|
G|------------------------------------------|
D|-2---7------------2-----------------------|
A|-0-3-5-4--2---4---0-----------------------|
E|---3---2--0---2---------------------------|#/11t2##/11t1#


[Primeira Parte]

B5            
   Os homens 
   A5     G5     B5     G5  A5  B5
E seus espelhos mágicos
      A5    G5 
Nada vêem além 
       B5    G5  A5  (Riff 3)
De si mesmos

#12t1#  (Riff 3)
#12t2#E|------------------------------------------|
B|------------------------------------------|
G|------------------------------------------|
D|------------------------------------------|
A|-5-4-2------------------------------------|
E|-------5-3-2------------------------------|#/12t2##/12t1#


[Segunda Parte]

E5                   F#5            G5
   Se esqueceram daquele que um dia 
              A5  ( A5  B5  G5  A5 )
Esteve entre nós

E5        F#5         G5
   E que veio cumprir 
         A5   (Riff 4)   B5
Segundo já  estava   escrito

#13t1#  (Riff 4 – Guitarra 1) 
#13t2#E|------------------------------------------|
B|------------------------------------------|
G|------------------------------------------|
D|------------------------------------------|
A|-5p4-2-0----------------------------------|
E|------------------------------------------|#/13t2##/13t1#

#14t1#  (Riff 4 – Guitarra 2) 
#14t2#E|------------------------------------------|
B|------------------------------------------|
G|------------------------------------------|
D|-4p2--------------------------------------|
A|-----5-4----------------------------------|
E|------------------------------------------|#/14t2##/14t1#

        
[Primeiro Refrão]

    G5      A5
Nasceu, sofreu
    F#5     G5  ( G5  E5  F#5 )  G5
Morreu por nós
            A5         B5
Seu sangue lá na cruz derramou
    G5      A5
Nasceu, sofreu


[Terceira Parte]

B5           
   Os homens 
   A5     G5     B5     G5  A5  B5
E seus espelhos mágicos
          
Só vêem um 
  A5       G5      B5  G5  A5  (Riff 3)
Cristo vencido em dor


[Quarta Parte]

E5                  F#5      G5
   Não conhecem a cruz vazia 
              A5  ( A5  B5  G5  A5 ) 
Pois ressuscitou

E5         F#5          G5
   Nem um toque de vida 
              A5  (Riff 4)  B5
Do filho do amor


[Segundo Refrão]

    G5      A5
Nasceu, sofreu
    F#5     G5  ( G5  E5  F#5 )  G5
Morreu por nós
            A5         B5
Seu sangue lá na cruz derramou

    G5      A5
Nasceu, sofreu
    F#5     G5  ( G5  E5  F#5 )  G5
Morreu por nós
            A5         B5
Seu sangue lá na cruz derramou


[Ponte]

     G5       
Na cruz lutou
     A5        
Na cruz venceu
       F#5        
E sua vida nos deu
           B5       A5       G5  A5
Pra que a vida estivesse em nós


[Solo] G5  A5  F#5  G5  
       G5  A5  B5
       G5  A5  F#5  G5
       G5  A5  B5

#15t1##15t2#E|-17b19r--b19~----------------------------------------|
B|----------------20b22--b22r----b22~------------------|
G|-----------------------------------------------------|
D|-----------------------------------------------------|
A|-----------------------------------------------------|
E|-----------------------------------------------------|#/15t2##/15t1#

#16t1##16t2#E|-17-------17-------------------15-17-19-17-15--------|
B|----20-19----20-19-17-15-17-19-----------------------|
G|-----------------------------------------------------|
D|-----------------------------------------------------|
A|-----------------------------------------------------|
E|-----------------------------------------------------|#/16t2##/16t1#

#17t1##17t2#E|-14-15-17-15-14----------15-14-12--------------------|
B|----------------17-15-14----------15-14-12-----------|
G|-------------------------------------------12-11-9---|
D|-----------------------------------------------------|
A|-----------------------------------------------------|
E|-----------------------------------------------------|#/17t2##/17t1#

#18t1##18t2#E|-----------------------------------------------------|
B|-----------------------------------------------------|
G|-----------------------------------9-11-12~----------|
D|-12-11-9-------------------9-11-12-------------------|
A|---------12-10-9-7-9-10-12---------------------------|
E|-----------------------------------------------------|#/18t2##/18t1#

#19t1##19t2#E|-----------------------------------------------------|
B|-----------------------------------------------------|
G|-11b12r11p9--11b12--11--9~---------------------------|
D|-----------------------------------------------------|
A|-----------------------------------------------------|
E|-----------------------------------------------------|#/19t2##/19t1#

#20t1#                                                 T
#20t2#E|--------------------------------------10h12h14-17/---|
B|-----------------------------------------------------|
G|------11--12--14--12--11-----11h12h14----------------|
D|-/14----------------------14-------------------------|
A|-----------------------------------------------------|
E|-----------------------------------------------------|#/20t2##/20t1#

#21t1##21t2#E|-14p12-10\9------------------------------------------|
B|-------------15b17--15--14--12--14--15-14-12---------|
G|-----------------------------------------------------|
D|-----------------------------------------------------|
A|-----------------------------------------------------|
E|-----------------------------------------------------|#/21t2##/21t1#

#22t1##22t2#E|-----------------------------------------------------|
B|-7/15~---15h17-14~---14h15p14--12\10--10~------------|
G|-----------------------------------------------------|
D|-----------------------------------------------------|
A|-----------------------------------------------------|
E|-----------------------------------------------------|#/22t2##/22t1#

#23t1##23t2#E|-----------------------------------------------------|
B|-12--14--14b15r14p12~--------------------------------|
G|-----------------------------------------------------|
D|-----------------------------------------------------|
A|-----------------------------------------------------|
E|-----------------------------------------------------|#/23t2##/23t1#

#24t1#   / H.N /   \/
#24t2#E|----19-----------------------------------------------|
B|-----------------------------------------------------|
G|-----------------------------------------------------|
D|-----------------------------------------------------|
A|-----------------------------------------------------|
E|-----------------------------------------------------|#/24t2##/24t1#

#25t1##25t2#E|-------------------7---------------------------------|
B|-/10--10p8p7hh8h10---10p8p7h8h10p8p7-----------------|
G|-------------------------------------9p7\6h7h9p7p6---|
D|-----------------------------------------------------|
A|-----------------------------------------------------|
E|-----------------------------------------------------|#/25t2##/25t1#

#26t1##26t2#E|-----------------------------------------------------|
B|-----------------------------------------------------|
G|-----------------------------------------------------|
D|-9p5h7h9p7p5-----------------------------------------|
A|-------------9p5h7h9p7p5-----------------------------|
E|-------------------------9p7p5h7~--------------------|#/26t2##/26t1#


[Terceiro Refrão]

    G5      A5
Nasceu, sofreu
    F#5     G5  ( G5  E5  F#5 )  G5
Morreu por nós
            A5         B5
Seu sangue lá na cruz derramou

    G5      A5
Nasceu, sofreu
    F#5     G5  ( G5  E5  F#5 )  G5
Morreu por nós
            A5         B5
Seu sangue lá na cruz derramou


[Ponte]

     G5       
Na cruz lutou
     A5        
Na cruz venceu
       F#5        
E sua vida nos deu
           B5       A5       G5  A5
Pra que a vida estivesse em nós

Estivesse em nós


[Final] B5  A5  G5  (Riff 1)
        B5  G5  A5
        B5  A5  G5  (Riff 1)
        B5  G5  A5
        B5  A5
Composição: Juninho AframColaboração e revisão: Vinícius DiasAndersom NascimentoThales Silva
Videoaula ESPELHOS MÁGICOS (aula de guitarra completa)