Já Que Me Ensinou a Beber

Os Barões da Pisadinha

Bm
234
X24432
C
123
X32010
D
123
XX0232
Em
12
022000
Tom: G
[Intro] C  D  Bm  Em
        C  D  Bm  Em

E|-------------------10-10-------
B|-12-12-12-12-12-12-------12-12-
G|-------------------------------
D|-------------------------------
A|-------------------------------
E|-------------------------------

E|--------------| 
B|12-12-12-12-12| 
G|--------------| 
D|--------------| 
A|--------------| 
E|--------------| 



E|-10-10-12-12-10----------------
B|----------------10-12-12-12-12-
G|-------------------------------
D|-------------------------------
A|-------------------------------
E|-------------------------------

E|-----10-10-12-| 
B|12-12---------| 
G|--------------| 
D|--------------| 
A|--------------| 
E|--------------| 



E|-12-10--------------------------
B|-------10--10----10----10----10-
G|--------------12----12----12----
D|--------------------------------
A|--------------------------------
E|--------------------------------

E|-------------| 
B|13-13-12-----| 
G|--------12-9-| 
D|-------------| 
A|-------------| 
E|-------------| 


[Primeira Parte]

         C
Eu prometi não mais te procurar
          D
Mas hoje não é meu dia de sorte
           Bm
Achei sua foto no meu celular
             Em
Não te esqueci

Me diz: como é que pode?

         C
Você me tirou do coração

E eu não te tirei da mente
  D
O álcool não apaga

A saudade da gente
  Bm    Em
Amor, amor

[Refrão]

                       C
Já que me ensinou a beber
                        D
Já que me ensinou a sofrer
Bm Me ensina, por favor Como é que faz Em Pra te esquecer C Já que me ensinou a beber D Já que me ensinou a sofrer Bm Me ensina, por favor Como é que faz Em Pra te esquecer ( C D Bm Em ) ( C D Bm Em ) [Primeira Parte] C Eu prometi não mais te procurar D Mas hoje não é meu dia de sorte Bm Achei sua foto no meu celular Em Não te esqueci Me diz: como é que pode? C Você me tirou do coração E eu não te tirei da mente D O álcool não apaga A saudade da gente Bm Em Amor, amor [Refrão] C Já que me ensinou a beber D Já que me ensinou a sofrer Bm Me ensina, por favor Como é que faz Em Pra te esquecer C Já que me ensinou a beber D Já que me ensinou a sofrer Bm Me ensina, por favor Como é que faz Em Pra te esquecer [Final] C D Bm Em C D Bm Em
Composição: Colaboração e revisão: Gustavo VazCarlos EduardoGlaydson Junior