A
123
X02220
Bm
234
X24432
E
123
022100
F#m
34
244222
Tom: G
[Intro] F#m  A  E  Bm


E|--------------9-7-9-------------
B|----7-7-7-7-7-------9-10-9-10-9-
G|--------------------------------
D|--------------------------------
A|--------------------------------
E|--------------------------------

E|-| 
B|7| 
G|-| 
D|-| 
A|-| 
E|-| 



E|--------------9-7-9-------------
B|----7-7-7-7-7-------9-10-9-10-9-
G|--------------------------------
D|--------------------------------
A|--------------------------------
E|--------------------------------

E|-| 
B|5| 
G|-| 
D|-| 
A|-| 
E|-| 



E|--------------7-5-7-------------
B|----5-5-5-5-5-------7-9-7-9-7-5-
G|--------------------------------
D|--------------------------------
A|--------------------------------
E|--------------------------------



E|--------------7-5-7---7-7-9-7---
B|----5-5-5-5-5--------7-7--------
G|--------------------------------
D|--------------------------------
A|--------------------------------
E|--------------------------------


[Primeira Parte]

               F#m
Entrei na rua dela

Com meu carro

Rebaixado,no meu
       A
Porta-malas escutando

Forró pesado,eu logo
      E
Percebi quando ela

Olhou pra mim,dei a
           Bm
Volta por cima e chamei

Ela pra sair,ela aceitou
      F#m
O convite a gente

Foi cair na farra,três
             A
Garrafas de vinho

Ficou mal intencionada
           E
Foi no banheiro

Do nada ela sumiu,quando fui
     Bm
Procurar com outro cara ela sumiu

[Refrão] F#m A Tá rocheda,tô nem vendo E Pode crer você Bm Merece um prêmio F#m A Tá rocheda,tô nem vendo E Pode crer você Bm Merece um prêmio De mulher mais bandida do F#m Mundo um coração que é A E Bm Vagabundo,vagabundo oh De mulher mais bandida do F#m Mundo um coração que é A E Bm Vagabundo,vagabundo oh [Solo] F#m A E Bm [Primeira Parte] F#m Entrei na rua dela Com meu carro Rebaixado,no meu A Porta-malas escutando Forró pesado,eu logo E Percebi quando ela Olhou pra mim,dei a Bm Volta por cima e chamei Ela pra sair,ela aceitou F#m O convite a gente Foi cair na farra,três A Garrafas de vinho Ficou mal intencionada E Foi no banheiro Do nada ela sumiu,quando fui Bm Procurar com outro cara ela sumiu [Refrão] F#m A Tá rocheda,tô nem vendo E Pode crer você Bm Merece um prêmio F#m A Tá rocheda,tô nem vendo E Pode crer você Bm Merece um prêmio De mulher mais bandida do F#m Mundo um coração que é A E Bm Vagabundo,vagabundo oh De mulher mais bandida do F#m Mundo um coração que é A E Bm Vagabundo,vagabundo oh
Composição: Felipe Amorim / Taciana GomesColaboração e revisão: Gabriel Silvagrupo oficialWesley AraújoVinicius Ferreira