busca

Alagados

Os Paralamas do Sucesso

Tom: A
Intro:

1º Violão

   A
E|---------0--------------------------------|
B|---2--------3-2---------------------------|
G|-----2----------2-------------------------|
D|-------2----------------------------------|
A|-0----------------------------------------|
E|------------------------------------------|

   E              D
E|------------------------------------------|
B|-----5-----5------3-----3-----------------|
G|-------4------------2---------------------|
D|-4/6-----6------4-----4-------------------|
A|------------------------------------------|
E|------------------------------------------|


2º Violão:


   A
E|----9-----12-10-9-------------------------|
B|------10----------10----------------------|
G|-9----------------------------------------|
D|------------------------------------------|
A|------------------------------------------|
E|------------------------------------------|


   E                  D
E|-------12-------12-----10-------10--------|
B|----------12--------------10--------------|
G|-11/13-------13-----11-------11-----------|
D|------------------------------------------|
A|------------------------------------------|
E|------------------------------------------|


   A
E|------------9-----------------------------|
B|----10---------12--10---------------------|
G|-------9---------------11-----------------|
D|-11------11-------------------------------|
A|------------------------------------------|
E|------------------------------------------|

   E             D
E|------------------------------------------|
B|-----9-----9-----7-----7------------------|
G|-------9-----------7----------------------|
D|-7/9-----9-----7-----7--------------------|
A|------------------------------------------|
E|------------------------------------------|



Primeira Parte:
      A   E              D
Todo dia    o sol da manhã
              A
Vem e lhes desafia
E                    D
  Traz do sonho pro mundo
                  A
Quem já não o queria
E                D          A
  Palafitas, trapiches, farrapos
                    E  D
Filhos da mesma agonia
       A   E                  D
E a cidade   que tem braços abertos
               A
Num cartão postal
        E         D              A
Com os punhos fechados na vida real
E            D      A
  Lhe nega oportunidades
                       E  D
Mostra a face dura do mal


Refrão:

A                  E       D
  Alagados, Trenchtown, Favela da Maré
A                         E
  A esperança não vem do mar
           D        A
Nem das antenas de TV
                    E
A arte de viver da fé
           D           A
Só não se sabe fé em quê
                    E
A arte de viver da fé
           D
Só não se sabe fé em quê


Repete Solo Intro:


   A
E|---------0--------------------------------|
B|---2--------3-2---------------------------|
G|-----2----------2-------------------------|
D|-------2----------------------------------|
A|-0----------------------------------------|
E|------------------------------------------|

   E              D
E|------------------------------------------|
B|-----5-----5------3-----3-----------------|
G|-------4------------2---------------------|
D|-4/6-----6------4-----4-------------------|
A|------------------------------------------|
E|------------------------------------------|


Base: A  E  D  (2x)


Repete a Primeira Parte

      A   E              D
Todo dia    o sol da manhã
              A
Vem e lhes desafia
E                    D
  Traz do sonho pro mundo
                  A
Quem já não o queria
E                D          A
  Palafitas, trapiches, farrapos
                    E  D
Filhos da mesma agonia
       A   E                  D
E a cidade   que tem braços abertos
               A
Num cartão postal
        E         D              A
Com os punhos fechados na vida real
E            D      A
  Lhe nega oportunidades
                       E  D
Mostra a face dura do mal


Variação 1 do Refrão:

A                  E       D
  Alagados, Trenchtown, Favela da Maré
A                         E
  A esperança não vem do mar
           D        A
Nem das antenas de TV
                    E
A arte de viver da fé
           D           A
Só não se sabe fé em quê
                    E
A arte de viver da fé
           D
Só não se sabe fé em quê


Repete Solo Intro:

   A
E|---------0--------------------------------|
B|---2--------3-2---------------------------|
G|-----2----------2-------------------------|
D|-------2----------------------------------|
A|-0----------------------------------------|
E|------------------------------------------|

   E              D
E|------------------------------------------|
B|-----5-----5------3-----3-----------------|
G|-------4------------2---------------------|
D|-4/6-----6------4-----4-------------------|
A|------------------------------------------|
E|------------------------------------------|

Base: A  E  D  (4x)


Solo 1:
1
   A
E|--------9---------9-----------------------|
B|---10--------10-------10-9----------------|
G|-9----9----9----9---9---------------------|
D|------------------------------------------|
A|------------------------------------------|
E|------------------------------------------|


   E7
E|-------10-------10------------------------|
B|---9--------9--------9-10-----------------|
G|-9---9----9---9----9----------------------|
D|------------------------------------------|
A|------------------------------------------|
E|------------------------------------------|


   A
E|--------9---------9-----------------------|
B|---10--------10-------10-9----------------|
G|-9----9----9----9---9---------------------|
D|------------------------------------------|
A|------------------------------------------|
E|------------------------------------------|


   E7
E|-------10-------10------------------------|
B|---9--------9--------9-10-----------------|
G|-9---9----9---9----9----------------------|
D|------------------------------------------|
A|------------------------------------------|
E|------------------------------------------|


2
   A7
E|--------12---10---9-----------------------|
B|---10-----------------12-10---------------|
G|-9----9----9----9---9---------------------|
D|------------------------------------------|
A|------------------------------------------|
E|------------------------------------------|


   E7
E|-------10---9-----------------------------|
B|---9------------12---10-------------------|
G|-9---9----9---9----9----11----------------|
D|------------------------------------------|
A|------------------------------------------|
E|------------------------------------------|


   A7
E|--------12---10---9-----------------------|
B|---10-----------------12-10---------------|
G|-9----9----9----9---9---------------------|
D|------------------------------------------|
A|------------------------------------------|
E|------------------------------------------|


   E7
E|-------10---9-----------------------------|
B|---9------------12---10-------------------|
G|-9---9----9---9----9----11----------------|
D|------------------------------------------|
A|------------------------------------------|
E|------------------------------------------|

Base:  A  E  D  (8x)


Variação 2 do Refrão:


Alagados, Trenchtown, Favela da Maré

A esperança não vem do mar

Nem das antenas de TV

A arte de viver da fé

Só não se sabe fé em quê

A arte de viver da fé

Só não se sabe fé em quê


Repete Variação 1 do Refrão:

A                  E       D
  Alagados, Trenchtown, Favela da Maré
A                         E
  A esperança não vem do mar
           D        A
Nem das antenas de TV
                    E
A arte de viver da fé
           D           A
Só não se sabe fé em quê
                    E
A arte de viver da fé
           D
Só não se sabe fé em quê


Solo 2:

1
E|---12-12-12--12-12--10-10-10--9-9-------------------|
B|----------------------------------12-12-12-10-------|
G|-9--------------------------------------------------|
D|----------------------------------------------------|
A|----------------------------------------------------|
E|----------------------------------------------------|


E|----------------------------------------------------|
B|-10-----10-10---10---10-------9---9-------7---7-----|
G|--9h11---9--9------9----9---9---9---9---7---7-------|
D|----------------------------------------------------|
A|----------------------------------------------------|
E|----------------------------------------------------|


E|---12-12-12--12-12--10-10-10--9-9-------------------|
B|----------------------------------12-12-12-10-------|
G|-9--------------------------------------------------|
D|----------------------------------------------------|
A|----------------------------------------------------|
E|----------------------------------------------------|


E|----------------------------------------------------|
B|-10-----10-10---10---10-------9---9-------7---7-----|
G|--9h11---9--9------9----9---9---9---9---7---7-------|
D|----------------------------------------------------|
A|----------------------------------------------------|
E|----------------------------------------------------|


2
   A
E|---9--x-9--x-9--x-9--x-9--x-9---9--9------|
B|---10-x-10-x-10-x-10-x-10-x-10--10-10-----|
G|-9-9--x-9--x-9--x-9--x-9--x-9---9--9------|
D|------------------------------------------|
A|------------------------------------------|
E|------------------------------------------|


E|-7--------------------------------------------------|
B|---10-9-7-------------------------------------------|
G|----------9-7-6-------------------------------------|
D|----------------9-7-7-------------------------------|
A|----------------------------------------------------|
E|----------------------------------------------------|


   A
E|---9--x-9--x-9--x-9--x-9--x-9---9--9------|
B|---10-x-10-x-10-x-10-x-10-x-10--10-10-----|
G|-9-9--x-9--x-9--x-9--x-9--x-9---9--9------|
D|------------------------------------------|
A|------------------------------------------|
E|------------------------------------------|


E|-7--------------------------------------------------|
B|---10-9-7-------------------------------------------|
G|----------9-7-6-------------------------------------|
D|----------------9-7-7-------------------------------|
A|----------------------------------------------------|
E|----------------------------------------------------|


3
     A
E|--/12-x-12-x-12-x-12-x-12-x-12--12-12-----|
B|--/14-x-14-x-14-x-14-x-14-x-14--14-14-----|
G|--/14-x-14-x-14-x-14-x-14-x-14--14-14-----|
D|------------------------------------------|
A|------------------------------------------|
E|------------------------------------------|


E|-10-9-----------------------------------------------|
B|------12-10-9---------------------------------------|
G|--------------11-9----------------------------------|
D|-------------------12-11-11-------------------------|
A|----------------------------------------------------|
E|----------------------------------------------------|

3
     A
E|--/12-x-12-x-12-x-12-x-12-x-12--12-12-----|
B|--/14-x-14-x-14-x-14-x-14-x-14--14-14-----|
G|--/14-x-14-x-14-x-14-x-14-x-14--14-14-----|
D|------------------------------------------|
A|------------------------------------------|
E|------------------------------------------|


E|-10-9-----------------------------------------------|
B|------12-10-9---------------------------------------|
G|--------------11-9----------------------------------|
D|-------------------12-11-11-------------------------|
A|----------------------------------------------------|
E|----------------------------------------------------|


Repete Solo 1:

1
   A
E|--------9---------9-----------------------|
B|---10--------10-------10-9----------------|
G|-9----9----9----9---9---------------------|
D|------------------------------------------|
A|------------------------------------------|
E|------------------------------------------|


   E7
E|-------10-------10------------------------|
B|---9--------9--------9-10-----------------|
G|-9---9----9---9----9----------------------|
D|------------------------------------------|
A|------------------------------------------|
E|------------------------------------------|


   A
E|--------9---------9-----------------------|
B|---10--------10-------10-9----------------|
G|-9----9----9----9---9---------------------|
D|------------------------------------------|
A|------------------------------------------|
E|------------------------------------------|


   E7
E|-------10-------10------------------------|
B|---9--------9--------9-10/----------------|
G|-9---9----9---9----9-----/----------------|
D|------------------------------------------|
A|------------------------------------------|
E|------------------------------------------|


Solo 3:

1
E|-5-5-7--5--7/9----5-5--7--5---------------|
B|-----------8/10--------------7/9----------|
G|-6-6—7--6--7/9----6-6--7--6--7/9----------|
D|-----------------------------7/9----------|
A|------------------------------------------|
E|------------------------------------------|


2
E|------------------------------------------|
B|-5-5--7--5---7/9------9\----7\----5-------|
G|-------------7/9--7/9--\--7--\--6---------|
D|-6-6--7--6---7/9--------------------------|
A|------------------------------------------|
E|------------------------------------------|


3
E|-5-5-7--5--7/9----9-9--7------------------|
B|-----------8/10---8-8----10\--7-----------|
G|-6-6—7--6--7/9----9-9---------7-----------|
D|------------------------------7-----------|
A|------------------------------------------|
E|------------------------------------------|
 
4
E|-/---10--------9--------------------5-----|
B|-/------10-------10---10---9-9-7-9--5-----|
G|-/11-------10-------9------9-9-7-9--6-----|
D|------------------------------------------|
A|------------------------------------------|
E|------------------------------------------|


E|-/---10--------9--------------------5-----|
B|-/------10-------10---10---9-9-7-9--5-----|
G|-/11-------10-------9------9-9-7-9--6-----|
D|------------------------------------------|
A|------------------------------------------|
E|------------------------------------------|


Base: A  E  A  A7
      D  A  E  A
      D  A  E  A


Repete o Refrão:


A                  E       D
  Alagados, Trenchtown, Favela da Maré
A                         E
  A esperança não vem do mar
           D        A
Nem das antenas de TV
                    E
A arte de viver da fé
           D           A
Só não se sabe fé em quê
                    E
A arte de viver da fé
           D
Só não se sabe fé em quê

Clipes