busca

Aonde Quer Que Eu Vá

Os Paralamas do Sucesso

Tom: Am (forma dos acordes no tom de Em) Capotraste na 5ª casa
[Primeira Parte]

[Riff 1]

E|--------------------------------|
B|--------------------------------|
G|--------------------------------|
D|--------------------------------|
A|-0h2----------------------------|
E|--------------------------------|

[Riff 2]

E|--------------------------------|
B|--------------------------------|
G|-2p0-------0--------------------|
D|-0---2-0h2----------------------|
A|--------------------------------|
E|--------------------------------|

[Riff 3]

E|--------------------------------|
B|--------------------------------|
G|--------------------------------|
D|--------------------------------|
A|-0-2-3--------------------------|
E|--------------------------------|

Em7             G
    Olhos fechados
Em7               G
    Pra te encontrar
Em7                     G
    Não estou ao seu lado
Em7               G
    Mas posso sonhar

[Refrão]

C9                      Am7
   E aonde quer que eu vá
        G  D11/F#  Em7
Levo você no    olhar
C9                    Am7
   Aonde quer que eu vá
                   G  D11/F#  Em7
Aonde quer que eu vá

[Riff 4]

E|--------------------------------|
B|--------------------------------|
G|--------------------------------|
D|-----0--------------------------|
A|-0h2----------------------------|
E|-------0------------------------|

[Segunda Parte]

Em7                 G
    Não sei bem certo
Em7             G
    Se é só ilusão
Em7                  G
    Se é você já perto
Em7            G
    Se é intuição

[Refrão]

C9                      Am7
   E aonde quer que eu vá
        G  D11/F#  Em7
Levo você no    olhar
C9                    Am7
   Aonde quer que eu vá
                   G  D11/F#  Em7
Aonde quer que eu vá

[Terceira Parte]

A5(9)           F#m
      Longe daqui
            C#m
Longe de tudo
      D                A5(9)
Meus sonhos vão te buscar
           F#m
Volta pra mim
                C#m
Vem pro meu mundo
    D                 A5(9)
Eu sempre vou te esperar
     F#m     C#m  D  C  B7
Larará, lararára

[Segunda Parte]

Em7                 G
    Não sei bem certo
Em7             G
    Se é só ilusão
Em7                  G
    Se é você já perto
Em7            G
    Se é intuição

[Refrão Final]

C9                      Am7
   E aonde quer que eu vá
        G  D11/F#  Em7
Levo você no    olhar
C9                    Am7
   Aonde quer que eu vá
                   G  D11/F# Em7
Aonde quer que eu vá

 C9      Am7     G  D11/F#  Em7
Lá, larará, larará
 C9      Am7     G  
Lá, larará, larará
 D11/F#            Em7
Aonde quer que eu vá

 C9      Am7     G  D11/F#  Em7
Lá, larará, larará
 C9      Am7     G  D11/F#   Em7
Lá, larará, larará        larárá
 C9      Am7     G  
Lá, larará, larará
 D11/F#            Em7
Aonde quer que eu vá

Clipes

Cifra Club Pro

Aproveite o Cifra Club com benefícios exclusivos e sem anúncios
7 dias grátis
Cifra Club Pro
Aproveite o Cifra Club com benefícios exclusivos e sem anúncios
7 dias grátis