Lanterna Dos Afogados

Os Paralamas do Sucesso

A#5
134
X133XX
A#m
234
X13321
B5
134
X244XX
B9
34
X24422
B9(11+)
34
X23422
D#m7
1234
XX1322
E9
123
024100
F#5
134
244XXX
Tom: G
[Intro] B9  B9(11+)  A#m  D#m7  
        B9  B9(11+)  A#m  D#m7 
        B9  B9(11+)  A#m  D#m7   
        E9

#1t1#   B9       B9(11+)  A#m      D#m7
#1t2#E|----------------------------------6-------|
B|-----7--------6--------6----------7-------|
G|---6--------6--------6----------6---------|
D|-9--------9--------8----------8-----------|
A|----------------------------6-------------|
E|------------------------------------------|#/1t2##/1t1#

#2t1#     E9
#2t2#E|-7----7-----------------------------------|
B|-7----7-----------------------------------|
G|-9----9-----------------------------------|
D|-9----9-----------------------------------|
A|-7----7-----------------------------------|
E|-0----0-----------------------------------|
   ↓    ↑#/2t2##/2t1#

[Primeira Parte]

             B9
Quando tá escuro
             B9(11+)
E ninguém te ouve
                A#m
Quando chega a noite
        D#m7
E você pode chorar
               B9
Há uma luz no túnel
            B9(11+)
Dos desesperados
               A#m
Há um cais de porto
             D#m7
Pra quem precisa chegar
             B9
Eu tô na lanterna
        B9(11+)
Dos afogados
              A#m
Eu tô te esperando
           D#m7       E9
Vê se não vai demorar

[Segunda Parte]

           B9
Uma noite longa
              B9(11+)
Pra uma vida curta
                 A#m
Mas já não me importa
         D#m7
Basta poder te ajudar
              B9
E são tantas marcas
              B9(11+)
Que já fazem parte
                A#m
Do que eu sou agora
           D#m7
Mas ainda sei me virar
             B9
Eu tô na lanterna
        B9(11+)
Dos afogados
              A#m
Eu tô te esperando
           D#m7       E9
Vê se não vai demorar

[Solo de Sax]  B5  C#5/G#  B5  C#5/G#
               A#5  B5  F#5

[Terceira Parte]

           B9
Uma noite longa
              B9(11+)
Pra uma vida curta
                 A#m
Mas já não me importa
         D#m7
Basta poder te ajudar
             B9
Eu tô na lanterna
        B9(11+)
Dos afogados
              A#m  D#m7
Eu tô te esperando

[Solo de Guitarra]

#3t1##3t2#E|-----------------------------------------------------|
B|-14--------------------14----------------------------|
G|-13b15r13p11--13b15~------13b15r13~---13b15r13p11----|
D|-----------------------------------------------------|
A|--------------------------------------------------13~|
E|-----------------------------------------------------|#/3t2##/3t1#

#4t1##4t2#E|-------------------------14--------------------------|
B|------------------14b16-----14b16r14p11--14-14b16r14-|
G|-----11---10~----------------------------------------|
D|-----------------------------------------------------|
A|-/13----x--------------------------------------------|
E|-----------------------------------------------------|#/4t2##/4t1#

#5t1##5t2#E|-11-------13~---11-------14~------14----13~---11-----|
B|----14-11----------14-11-------11----11----------14--|
G|-----------------------------------------------------|
D|-----------------------------------------------------|
A|-----------------------------------------------------|
E|-----------------------------------------------------|#/5t2##/5t1#

#6t1##6t2#E|---------11-----------11-----------11----------------|
B|-b16r-------14b16r-------14b16r-------14b16r---------|
G|-----------------------------------------------------|
D|-----------------------------------------------------|
A|-----------------------------------------------------|
E|-----------------------------------------------------|#/6t2##/6t1#

#7t1##7t2#E|-11--------------------------------------------------|
B|----14b16---b16-b16-b16r-b16r--b16r--b16r--b16r--b16r|
G|-----------------------------------------------------|
D|-----------------------------------------------------|
A|-----------------------------------------------------|
E|-----------------------------------------------------|#/7t2##/7t1#

#8t1##8t2#E|--------------------------14-------------------------|
B|-b16r--b16r--b16r--b16-------14b16--14~--------------|
G|-----------------------------------------------------|
D|-----------------------------------------------------|
A|-----------------------------------------------------|
E|-----------------------------------------------------|#/8t2##/8t1#

#9t1##9t2#E|----19b21~---19-18-16--------------------------------|
B|-16-------------------19-16-19----16-19-16~----------|
G|-------------------------------18--------------------|
D|-----------------------------------------------------|
A|-----------------------------------------------------|
E|-----------------------------------------------------|#/9t2##/9t1#
Composição: Herbert ViannaColaboração e revisão: Lucas GomesVinícius DiasVinícius NevesPedro Confortie mais 1
Videoaula Lanterna dos Afogados (aula de guitarra)