busca

Menino e Menina

Os Paralamas do Sucesso

Tom: A
[Intro] A D A9 A4(6/9)

( A  D  E  D )

E|---12-10-10-9-9----------12-|12-10-10-9-9------------|
B|10--------------12-12-10----|-------------12-12-10-10|
G|----------------------------|------------------------|
D|----------------------------|------------------------|
A|----------------------------|------------------------|
E|----------------------------|------------------------|

Menino e menina se conheceram quase sem querer
Não foi por obra do acaso tinha mesmo que acontecer
Eles se julgavam diferentes como todos os amantes
imaginam ser
Faziam tantos planos, com seus vinte e pouco anos
Eram poucos pra tanto querer

A  E/G# F#m E D       F  G
Ah, se eles soubessem
O que eles pensam saber

E|------------------------|
B|----5-----7---5-5-5----3|
G|--6-----7---4--------2--|
D|7-----------------------|
A|------------------------|
E|------------------------|

Clipes