busca

Música Ligeira

Os Paralamas do Sucesso

Tom: C
Introd: ( Am  F  C  G ) 
 
            Am       F  C       G          Am   F C    G 
            Ela deitou, seu calor se espalhava 
            Am          F   C       G      Am   F C   G 
            Eu despertei, e ainda sonhava 
Am                  F   C      G           Am  F C  G 
            Algum tempo atrás, escrevi uma carta 
Am                   F  C                 G 
            Que nunca escolhi as armas do amor 
    Am              F C     G           Am    F C  G  
E daquele amor    De música ligeira 
Am                F C          G         Am   F C   G 
            Nada nos livra      Nada mais resta 
 
            Am              F     C       G         Am    F  C    G 
Não lhe enviarei      Mentiras e rosas 
Am                F     C    G          Am     F  C   G    
Nem penso evitar     o toque secreto 
 
Refrão 
 
 Am              F C     G           Am    F C  G  
E daquele amor    De música ligeira 
Am                F C          G         Am   F C   G 
            Nada nos livra      Nada mais resta 
 
-------------------------------------------------------------------------------- 
SOLO 
(Solo depois dos Refrões, acompanhado da Cifra) 
   
  Am  F    C   G 
E|---------------------|----------------------------------------------|  
B|--------------------|---------------------------------------------|  
G|--------------------|----------------------------------------------|  
D|-------------------|---------------------------------------------|  
A|-----2-3--3-3---2---0-------0|----------------------------------------------|  
E|---------------------------3-0|----------------------------------------------| 
 
  Am  F    C    G 
E|---------------------|----------------------------------------------|  
B|--------------------|---------------------------------------------|  
G|--------------------|----------------------------------------------|  
D|-------------------------------|-----------------------------------------|  
A|-----0-2-3---5-7-7~10-10~11-|-------------------------------------------|  
E|-------------------------------|-----------------------------------------| 
 
  Am  F    C    G 
E|---------------------|----------------------------------------------|  
B|--------------------|---------------------------------------------|  
G|--------------------|----------------------------------------------|  
D|-------------------|---------------------------------------------|  
A|-----2-3--3-3---2---0-------0|----------------------------------------------|  
E|---------------------------3-0|----------------------------------------------| 
 
  Am  F    C    G 
E|---------------------|----------------------------------------------|  
B|--------------------|---------------------------------------------|  
G|--------------------|----------------------------------------------|  
D|-------------------------------|-----------------------------------------|  
A|-----0-2-3---5-7-7~10-10~11-|-------------------------------------------|  
E|-------------------------------|-----------------------------------------|

Clipes