A
123
X02220
A/C#
1234
X4X255
A7
12
X02020
D5
134
X577XX
E5
12
022XXX
Tom: G
(refrão)

*apenas no início da música, tocar:

#1t1# E5               D5
#1t2#-----------------------------------------
-5---5------------3---3------------------
-4---4------------2---2---0--------------
-2---2---2--------0-------0--------------
-2-------2-------------------------------
-0-------0-------------------------------#/1t2##/1t1#

#2t1# A/C#         D5       E5
#2t2#-----------------------------------------
--------------3-3------5-----------------
-----2---2----2-2-x-x--4-----2---0-------
-----2---2----0-0-x-x--2-----2---0-------
-2/4---4---4-----------2-2-2---2---------
-----------------------0-0-0---0---------#/2t2##/2t1#


* e depois continuar assim:

#3t1# E5               D5
#3t2#-----------------------------------------
-5-5-5-5-5-5-5----3-3--------------------
-4-4-4-4-4-4-4----2-2------7---7h9-7-----
-2-2-2-2-2-2-2----0-0------7---7h9-7-----
-2---2---2---2---------7/9---9-------9\--
-0---0---0---0---------------------------#/3t2##/3t1#

#4t1# A/C#         D5       E5
#4t2#-----------------------------------------
--------------3-3------5-----------------
-----2---2----2-2-x-x--4---2---0---2---0-
-----2---2----0-0-x-x--2---2---0---2---0-
-2/4---4---4-----------2-2---2---2---2---
-----------------------0-0---0---0---0---#/4t2##/4t1#

    E5
Eu vivo sem saber até quando ainda estou vivo
D5
  Sem saber o calibre do perigo
        A/C# D5                E5
Eu não sei      d'aonde vem o tiro

    E5
Eu vivo sem saber até quando ainda estou vivo
D5
  Sem saber o calibre do perigo
        A/C# D5                E5
Eu não sei      d'aonde vem o tiro

(riff principal e estrofes)

riff principal

#5t1##5t2#---------------------------------------------------
---------------------------------------------------
---------------------------------------------------
-----0h2---2p0-----0---------0h2-----2p0-----0-----
---------2-----0h2---------------0h2-----0h2-------
-0-0-----------------3b¼-0-0-------------------3b¼-#/5t2##/5t1#


#6t1# A               A7   A              A7
#6t2#-----------------------------------------
-----------2-----2--------------2----2---
-2-2-2-----2-----0----2-2-2-----2----0---
-2-2-2--2--2--2--2-x--2-2-2--2--2--2-2-x-
-0-0-0--0-----0----x--0-0-0--0-----0---x-
-----------------------------------------#/6t2##/6t1#


Por que caminhos você vai e volta?
Aonde você nunca vai?
Em que esquinas você nunca pára?
A que horas você nunca sai?
           A                      A7
Há quanto tempo você sente medo?
          A                     A7
Quantos amigos você já perdeu?

*volta o riff principal

Entrincheirado, vivendo em segredo
E ainda diz que não é problema seu

E a vida já não é mais vida
No caos ninguém é cidadão
As promessas foram esquecidas
Não há estado, não há mais nação
    A                         A7
Perdido em números de guerra
   A                     A7
Rezando por dias de paz

*volta o riff principal

Não vê que a sua vida aqui se encerra
Com uma nota curta nos jornais

*repetir as partes

#7t1#*repetir o riff 8x, e de última vez tocar:
                             E5
#7t2#---------------------------------------------------
-----------------------------5---------------------
-----------------------------4---------------------
-----0h2-----2p0-----0-------2---------------------
---------0h2-----0h2---------2---------------------
-0-0-------------------3b¼-0-0---------------------#/7t2##/7t1#


Eu vivo sem saber
Até quando ainda estou vivo

E5
Composição: Herbert ViannaColaboração e revisão: Gustavo CunhaThiago HolandaSilvio Pereira
Videoaula O Calibre (aula de violão)