A
123
X02220
A7+
123
X02120
Am7
12
X02010
C#m
234
X46654
D
123
XX0232
E
123
022100
E7
1234
022130
F#m
34
244222
G#m
34
466444
Tom: G
[Intro]  E  G#m  A7+
         E  G#m  A7+
         E  G#m  A7+
         E  G#m  A7+

E           G#m
 Ela é só uma menina
F#m              A7+
   E eu pagando pelos erros
E                   G#m    F#m  A7+
 Que eu nem sei se cometi
E           G#m
 Ela é só uma menina
F#m                 A7+
   E eu deixando que ela faça
E              G#m       F#m  A7+
 O que bem quiser de mim

F#m                A7+
   Se eu queria enlouquecer
C#m       G#m       F#m   A7+
   Essa é a minha chance
    Am7          E    D  E7
 É tudo que eu quis
F#m                A7+
   Se eu queria enlouquecer
C#m     G#m  F#m      A7+  Am7
   Esse é o romance ideal

E               G#m
Eu não pedi que ela ficasse
F#m           A7+
   Ela sabe que na volta
E             G#m   F#m  A7+
 Ainda vou estar aqui    ô ôoo
E           G#m
 Ela é só uma menina
F#m           A7+
   E eu pagando pelos erros
E                     G#m  F#m  A7+
 Que eu nem sei se cometi

F#m                A7+
   Se eu queria enlouquecer
C#m       G#m       F#m  A7+
   Essa é a minha chance
    Am7          E    D  E7
 É tudo que eu quis
F#m                A7+
   Se eu queria enlouquecer
C#m     G#m F#m       A7+  Am7
   Esse é o romance ideal


[Solo]  E  G#m  F#m  A7+
        E  G#m  F#m  A7+
        E  G#m  F#m  A7+
        E  G#m  F#m  A7+

[Solo]
                                  
#1t1##1t2#E|-----------------------------|------------|----------------------------|
B|-----------------------------|----------| -|-----9h10p9h10--------------|
G|---------------9-8-9/11------|----9b11b9--|-9h11---------11b13---------|
D|-------------9----------9-9--|-987--------|----------------------------|
A|------7-9/11-----------------|------------|----------------------------|
E|----7------------------------|------------|----------------------------|#/1t2##/1t1#

#2t1##2t2#E|----------------------12------------------|-11-12-14b16-14b16-14-12-11-|
B|-------9h10p9h10-------12----7-7h9-7------|----------------------------|
G|---9h11---------11/13---13-9---------8h9--|----------------------------|
D|------------------------------------------|----------------------------|
A|------------------------------------------|----------------------------|
E|------------------------------------------|----------------------------|#/2t2##/2t1#

#3t1##3t2#E|-12-14-------s12-12-12-12------------------|-17-16h17-----17-16h17-----|
B|-------12-12-------------------------------|----------17----------17---|
G|----------------------------s9--9-9-9-9-9--|-----------16-----------16-|
D|-------------------------------------------|---------------------------|
A|-------------------------------------------|---------------------------|
E|-------------------------------------------|---------------------------|#/3t2##/3t1#

#4t1##4t2#E|----21-21-19-18-17-18-19-------------------|
B|---17----------------------17-17-17-17-17--|
G|-s16---------------------s16-16-16-16-16---|
D|-------------------------------------------|
A|-------------------------------------------|
E|-------------------------------------------|#/4t2##/4t1#

F#m                A7+
   Se eu queria enlouquecer
C#m       G#m       F#m   A7+
   Essa é a minha chance
    Am7          E    D  E7
 É tudo que eu quis
F#m                A7+
   Se eu queria enlouquecer
C#m     G#m  F#m      A7+  Am7
   Esse é o romance ideal

( F#m  A  F#m  A  E )
Composição: Herbert Vianna / Martin CardosoColaboração e revisão: Pablo FischerMarcos PauloJulio Olimpiojuliano silva