busca

Seguindo Estrelas

Os Paralamas do Sucesso

Tom: A (forma dos acordes no tom de G) Capotraste na 2ª casa
Intro:
   D                   D5(9)/C
E|----------2--3/5-3------2--0--0h2--------
B|-----3----3-------------0--0-------------
G|---2---2--2-----------2------------------
D|0---------0------------------------------
A|--------------------3--------------------
E|-----------------------------------------

   G6/B            Gm6/Bb          D5(9)
E|--------0-----------------0--------------
B|----3-----3-----------3-----3-------3----
G|------0-----0-------0---0-----0---2--2---
D|--0---------------0-------------0--------
A|2-------------0-1------------------------
E|-----------------------------------------

         D5(9)/C         G6/B
E|0---------------0---------------0--------
B|----3-------3-------3-------3-------3----
G|--2-------2---2---2-------0---0---0------
D|--------0---------------0----------------
A|------3---------------2------------------
E|-----------------------------------------

   Gm6/Bb
E|---------0-------------------------------
B|----3--------3---------------------------
G|--0---0----0-----------------------------
D|-----------------------------------------
A|1----------------------------------------
E|----------------------------------------

D5(9)
 Sigo palavras e busco estrelas
      D7M(9)
O que é que o mundo fez
Pra você rir assim
Bm7(11)
  Pra não tocá-la, melhor nem vê-la
Como é que você pôde se perder de mim
G5
 Faz tanto frio, faz tanto tempo
            G5(7M)
Que no meu mundo algo se perdeu
Em7
  Te mando beijos
Em outdoors pela avenida
E você sempre tão distraída
   F#5+         F#     G7M
Passa e não vê,    e não vê

D5(9)
 Fico acordado noites inteiras
    D7M(9)
Os dias parecem não ter mais fim
Bm7(11)
  E a esfinge da espera
Olhos de pedra sem pena de mim
G5
  Faz tanto frio, faz tanto tempo
            G5(7M)
Que no meu mundo algo se perdeu
Em7
  Te mando beijos
Em outdoors pela avenida
Você sempre tão distraída
F#5+         F#      G7M
Passa e não vê,   e não vê

Refrão 2x:
D            D5(9)/C     G6/B  Gm6/Bb    D
  Já não consigo não pensar       em você
D5(9)/C     G6/B  Gm6/Bb
D            D5(9)/C     G6/B  Gm6/Bb    D
  Já não consigo não pensar       em você

( D5(9)/C     G6/B  Gm6/Bb D )

D5(9)
 Fico acordado noites inteiras
    D7M(9)
Os dias parecem não ter mais fim
Bm7(11)
  E a esfinge da espera
Olhos de pedra sem pena de mim
G5
  Faz tanto frio, faz tanto tempo
            G5(7M)
Que no meu mundo algo se perdeu
Em7
  Te mando beijos
Em outdoors pela avenida
Você sempre tão distraída
F#5+         F#      G7M
Passa e não vê,   e não vê

D5(9)
 Sigo palavras e busco estrelas
      D7M(9)
O que é que o mundo fez
Pra você rir assim
Bm7(11)
  Pra não tocá-la, melhor nem vê-la
Como é que você pôde se perder de mim
G5
 Faz tanto frio, faz tanto tempo
            G5(7M)
Que no meu mundo algo se perdeu
Em7
  Te mando beijos
Em outdoors pela avenida
E você sempre tão distraída
   F#5+         F#     G7M
Passa e não vê,    e não vê

Refrão:
D            D5(9)/C     G6/B  Gm6/Bb    D
  Já não consigo não pensar       em você
D5(9)/C     G6/B  Gm6/Bb
D            D5(9)/C     G6/B  Gm6/Bb    D
  Já não consigo não pensar       em você

( D5(9)/C     G6/B  Gm6/Bb D )

Clipes