Seguindo Estrelas

Os Paralamas do Sucesso

Bm7(11)
123
X20230
D
123
XX0232
D5(9)
134
X579XX
D5(9)/C
123
X30230
D7M(9)
1234
X5465X
Em7
123
022030
F#
234
244322
F#5+
234
25432X
G5
134
355XXX
G5(7M)
123
3X403X
G6/B
34
75575X
G7M
1234
3X443X
Gm6/Bb
123
X12030
Tom: G
#1t1#Intro:
   D                   D5(9)/C
#1t2#E|----------2--3/5-3------2--0--0h2--------
B|-----3----3-------------0--0-------------
G|---2---2--2-----------2------------------
D|0---------0------------------------------
A|--------------------3--------------------
E|-----------------------------------------#/1t2##/1t1#

#2t1#   G6/B            Gm6/Bb          D5(9)
#2t2#E|--------0-----------------0--------------
B|----3-----3-----------3-----3-------3----
G|------0-----0-------0---0-----0---2--2---
D|--0---------------0-------------0--------
A|2-------------0-1------------------------
E|-----------------------------------------#/2t2##/2t1#

#3t1#         D5(9)/C         G6/B
#3t2#E|0---------------0---------------0--------
B|----3-------3-------3-------3-------3----
G|--2-------2---2---2-------0---0---0------
D|--------0---------------0----------------
A|------3---------------2------------------
E|-----------------------------------------#/3t2##/3t1#

#4t1#   Gm6/Bb
#4t2#E|---------0-------------------------------
B|----3--------3---------------------------
G|--0---0----0-----------------------------
D|-----------------------------------------
A|1----------------------------------------
E|----------------------------------------#/4t2##/4t1#

D5(9)
 Sigo palavras e busco estrelas
      D7M(9)
O que é que o mundo fez
Pra você rir assim
Bm7(11)
  Pra não tocá-la, melhor nem vê-la
Como é que você pôde se perder de mim
G5
 Faz tanto frio, faz tanto tempo
            G5(7M)
Que no meu mundo algo se perdeu
Em7
  Te mando beijos
Em outdoors pela avenida
E você sempre tão distraída
   F#5+         F#     G7M
Passa e não vê,    e não vê

D5(9)
 Fico acordado noites inteiras
    D7M(9)
Os dias parecem não ter mais fim
Bm7(11)
  E a esfinge da espera
Olhos de pedra sem pena de mim
G5
  Faz tanto frio, faz tanto tempo
            G5(7M)
Que no meu mundo algo se perdeu
Em7
  Te mando beijos
Em outdoors pela avenida
Você sempre tão distraída
F#5+         F#      G7M
Passa e não vê,   e não vê

Refrão 2x:
D            D5(9)/C     G6/B  Gm6/Bb    D
  Já não consigo não pensar       em você
D5(9)/C     G6/B  Gm6/Bb
D            D5(9)/C     G6/B  Gm6/Bb    D
  Já não consigo não pensar       em você

( D5(9)/C     G6/B  Gm6/Bb D )

D5(9)
 Fico acordado noites inteiras
    D7M(9)
Os dias parecem não ter mais fim
Bm7(11)
  E a esfinge da espera
Olhos de pedra sem pena de mim
G5
  Faz tanto frio, faz tanto tempo
            G5(7M)
Que no meu mundo algo se perdeu
Em7
  Te mando beijos
Em outdoors pela avenida
Você sempre tão distraída
F#5+         F#      G7M
Passa e não vê,   e não vê

D5(9)
 Sigo palavras e busco estrelas
      D7M(9)
O que é que o mundo fez
Pra você rir assim
Bm7(11)
  Pra não tocá-la, melhor nem vê-la
Como é que você pôde se perder de mim
G5
 Faz tanto frio, faz tanto tempo
            G5(7M)
Que no meu mundo algo se perdeu
Em7
  Te mando beijos
Em outdoors pela avenida
E você sempre tão distraída
   F#5+         F#     G7M
Passa e não vê,    e não vê

Refrão:
D            D5(9)/C     G6/B  Gm6/Bb    D
  Já não consigo não pensar       em você
D5(9)/C     G6/B  Gm6/Bb
D            D5(9)/C     G6/B  Gm6/Bb    D
  Já não consigo não pensar       em você

( D5(9)/C     G6/B  Gm6/Bb D )
Composição: Herbert ViannaColaboração e revisão: Gabriel MarquesmarcioBruno NascimentoJefferson Dantase mais 1
Videoaula Seguindo Estrelas (aula de violão)