busca

Sinais do Sim

Os Paralamas do Sucesso

Tom: G
[Intro]  

       D5            C9           Bm7
E|-----------------------------------------------------|
B|-----------------------3---------3-------------------|
G|-------7-------------5---3---------------------------|
D|-----7---7---------5-----------------4/2-------------|
A|---5-------------3-------------2---------------------|
E|-----------------------------------------------------|
 
       D5            C9           Bm7
E|-----------------------------------------------------|
B|-----------------------3---------3-------------------|
G|-------7-------------5---3---------------------------|
D|-----7---7---------5---------------------------------|
A|---5-------------3------------2----------------------|
E|-----------------------------------------------------|

D5  C9
Eu
      Bm7              D5  C9
Sei que teu coração é meu
  Bm7                     D5  C9
Que algo em mim te convenceu
     Bm7              D5  C9  Bm7
De que o melhor está por vir

 D5  C9
Sim
 Bm7                D5  C9
Se deixe levar por mim
      Bm7             D5  C9
Peço perdão por insistir
        Bm7               D5  C9  Bm7
Mas se já chegamos até aqui

Am7
   Ver o nascer de um novo dia
       G
Não parece tão ruim
Am7
   Há pouco tempo só se via 
     G
Na poeira da dor
      A
Os sinais do sim
 
 D5  C9
Não
     Bm7                  D5    C9
Se afaste tanto dos seus sonhos
     Bm7                 D5  C9
Sem ser ousado eu te proponho
   Bm7             D5  C9  Bm7
Relaxe e se deixe sonha______ar

 D5  C9
Pois
    Bm7                D5  C9
Um dos encantos desta vida
   Bm7                D5  C9
É não ter peso nem medida
     Bm7             D5   C9  Bm7
Pra restringir o imaginar
 
Am7
   Ver o nascer de um novo dia
       G
Não parece tão ruim
Am7
   Há pouco tempo só se via 
     G
Na poeira da dor
      A
Os sinais do sim

G  D/F# A
G  D/F# A
G  D/F# A
G  D/F# A

[Solo]  E5  F#5  G5  A5
        E5  F#5  G5  A5
        E5  F#5  G5  A5
        E5  F#5  B5  A5

 D5  C9
Não
     Bm7                  D5    C9
Se afaste tanto dos seus sonhos
     Bm7                 D5  C9
Sem ser ousado eu te proponho
   Bm7             D5  C9  Bm7
Relaxe e se deixe sonha______ar

D5  C9
Sim
 Bm7                D5  C9
Se deixe levar por mim
      Bm7             D5  C9
Peço perdão por insistir
        Bm7               D5  C9  Bm7
Mas se já chegamos até aqui

Am7
   Ver o nascer de um novo dia
       G
Não parece tão ruim
Am7
   Há pouco tempo só se via 
     G
Na poeira da dor
      A
Os sinais do sim

      D5            C9           Bm7
E|-----------------------------------------------------|
B|-----------------------3---------3-------------------|
G|-------7-------------5---3---------------------------|
D|-----7---7---------5-----------------4/2-------------|
A|---5-------------3-------------2---------------------|
E|-----------------------------------------------------|
 
       D5            C9           Bm7
E|-----------------------------------------------------|
B|-----------------------3---------3-------------------|
G|-------7-------------5---3---------------------------|
D|-----7---7---------5---------------------------------|
A|---5-------------3------------2----------------------|
E|-----------------------------------------------------|

Clipes