A
123
X02220
A#º
123
X12020
A/C#
1234
X4X255
A4
123
X02230
A4/C#
1234
X42230
Am7
12
X02010
Bm7
34
X24232
D
123
XX0232
D/F#
1234
2X0232
D7
123
XX0212
D9
12
XX0230
E7/G#
1234
4X243X
Em7
123
022030
G
123
320003
G/D
1234
X5543X
Tom: G
[Intro] D  A4/C#  Bm7  A  G  D/F#  Em7

#1t1##1t2#E|---------------------------9----------------------------|
B|-------10-------10------7-----------3-------------------|
G|---------------------------9--2---------2--------2------|
D|-11/12-----9/11-----7/9---------4h5---5---2h4--4---5----|
A|--------------------------------------------------------|
E|--------------------------------------------------------|#/1t2##/1t1#

#2t1#       D       A4/C#     Bm7       A
#2t2#E|-------------------------------------------|
B|-3---3----3---3----3---3----2---2----------|
G|-2---2----2---2----2---2----2---2----------|
D|---4---4----2---2----4---4----2---2--------|
A|-5--------4--------2-----------------------|
E|----------------------------5--------------|#/2t2##/2t1#

#3t1#       G       D/F#      Em7
#3t2#E|---------------------------10--------------|
B|-3---3----3---3----8---7h8-----------------|
G|-4---4----2---4----7-----------------------|
D|---5---5----4---4----9---------------------|
A|-------------------7-----------------------|
E|-3--------2--------------------------------|#/3t2##/3t1#

       D9             A/C#
Minha fé não está firmada
            Bm7            A/C#
Nas coisas que podes fazer
         D9         G           A4  A
Eu aprendi a Te adorar pelo que és
      Em7   G/D     A/C#
Dele vêm o sim e o amém
         D9     A/C#      Bm7
Somente dele e mais ninguém
A  G        A4    G
A Deus seja o louvor

[Parte 1 de 4]

#4t1#       D9      A/C#      Bm7          A/C#
#4t2#E|------------------------------------------|
B|-5---5----5---5----3---3---3----5---------|
G|-2---2----2---2----2---2---2----2---------|
D|---4---4----2---2----4---4---4----2-------|
A|-5--------4--------2------------4---------|
E|------------------------------------------|#/4t2##/4t1#

[Parte 2 de 4]

#5t1#       D9       G        A4       A
#5t2#E|------------------------------------------|
B|-5---5----3---3----3---3----2---2---------|
G|-2---2----4---4----2---2----2---2---------|
D|---4---4----5---5----2---2----2---2-------|
A|-5----------------------------------------|
E|----------3--------5--------5-------------|#/5t2##/5t1#

[Parte 3 de 4]

#6t1#      Em7  G/D   A/C#      D9  A/C#  Bm7  A
#6t2#E|-3----3-----------------------------------|
B|-3----3----5---5----5----5----3---2-------|
G|---4----4--2---2----2----2----2---2-------|
D|-2-----------2---2----4----2----4---2-----|
A|------5----4--------5----4----2-----------|
E|----------------------------------5-------|#/6t2##/6t1#

[Parte 4 de 4]

#7t1#       G       A4        G
#7t2#E|-------------------3--10----------------------|
B|-3---3----3---3----3--10h12p10--10------------|
G|-4---4----2---2----4------------9-h11p9-------|
D|---5---5----2---2--5--------------------------|
A|-------------------5--------------------------|
E|-3--------5--------3--------------------------|#/7t2##/7t1#

[Refrão]

           D9         A/C#
Se Deus fizer, Ele é Deus
          Bm7        A
Se não fizer, Ele é Deus
              G          D/F#
Se a porta abrir, Ele é Deus
           Em7                 A
Mas se fechar, continua sendo Deus

             D9          A/C#
Se a doença vier, Ele é Deus
              Bm7        A
Se curado eu for, Ele é Deus
             G            D/F#
Se tudo der certo, Ele é Deus
            Em7                 A
Mas se não der, continua sendo Deus

#8t1##8t2#E|----10----10----------------------------------------------|
B|----10h12-10-------10----10-2-----------------------------|
G|-12----------12/11-9-h11-9--------------------------------|
D|----------------------------------------------------------|
A|----------------------------------------------------------|
E|----------------------------------------------------------|#/8t2##/8t1#

[Segunda Parte]

        G                 D/F#
Não o adoro pelo que Ele faz
       Em7              Bm7
Eu o adoro pelo que Ele é
               A
Haja o que houver
 G      A    D   D7
Sempre será Deus

        G                 D/F#
Não o adoro pelo que Ele faz
       Em7              Bm7
Eu o adoro pelo que Ele é
               A
Haja o que houver
 G      A    D
Sempre será Deus

[Refrão]

           D9         A/C#
Se Deus fizer, Ele é Deus
          Bm7        A
Se não fizer, Ele é Deus
              G          D/F#
Se a porta abrir, Ele é Deus
           Em7                 A
Mas se fechar, continua sendo Deus

             D9          A/C#
Se a doença vier, Ele é Deus
      A#º     Bm7  E7/G#        Am7
Se curado eu for,        Ele é Deus
    D/F#      G            D/F#
Se tudo der certo, Ele é Deus
            Em7                 A
Mas se não der, continua sendo Deus

[Final]

 G
Deus é Deus
 Bm7
Deus é Deus
 G          A
Deus é Deus

 G
Deus é Deus
 Bm7
Deus é Deus
 G          A4
Deus é Deus
Composição: Delino MarcalColaboração e revisão: junior antoneli