busca

Affliction

Pennywise

Tom: D
E |--------------------------------------------------------------------------
B |--------------------------------------------------------------------------
G |--------------------------------------------------------------------------
D |--77-------------77-----------77---------------------7--------------------
A |--55-5-7-8-7-5---55-5-7-8-7---55-5-7-8-7-5---7-8-7-8-5--------------------
E |---------------8------------5--------------8-5-6-5-6----------------------

E |--------------------------------------------------------------------------
B |--------------------------------------------------------------------------
G |--------------------------------------------------------------------------
D |-P-77777777------------P-10-10-10-10-10-10-10-10---------------10------7--
A |-M-55555555-P-88888888-M-8--8--8--8--8--8--8--8--P-10-10-10-10-8--8/10-5--
E |------------M-66666666---------------------------M-8--8--8--8-----6/8-----

E |--------------------------------------------------------------------------
B |--------------------------------------------------------------------------
G |--------------------------------------------------------------------------
D |-P-77777777----------------------------------------7----------------------
A |-M-55555555-P-88888888-P-11111111-P-3333-10-8-10-8-5----------------------
E |------------M-66666666-M-33333333-M-5555-8--6-8--6------------------------

E |--------------------------------------------------------------------------
B |--------------------------------------------------------------------------
G |--------------------------------------------------------------------------
D |-P-77777777-------------10-P-10-10-10-10-10-10----------------10----5-----
A |-M-55555555-8-P-8888888-8--M-8---8--8--8--8--8--10-P-10-10-10--8-10-7-----
E |------------6-M-6666666-------------------------8--M-8--8--8-----8--------

E |--------------------------------------------------------------------------
B |--------------------------------------------------------------------------
G |--------------------------------------------------------------------------
D |-P-77777777---------------------------------------------------------------
A |-M-55555555-8-P-8888888-3-P-3333333-5-P-5555555/7777777777-8888-----------
E |------------6-M-6666666-1-M-1111111-3-M-3333333/5555555555-6666-----------

E |--------------------------------------------------------------------------
B |--------------------------------------------------------------------------
G |--------------------------------------------------------------------------
D |-7777-10-10-10-10------------------10-7777-10-10-10-10------------10------
A |-5555-8--8--8--8--8888-10-10-10-10-8--5555-8--8--8--8--8888-10-10-8-------
E |------------------6666-8--8--8--8----------------------6666-8--8----------

E |--------------------------------------------------------------------------
B |--------------------------------------------------------------------------
G |--------------------------------------------------------------------------
D |-7777-10-10-10-10-------------------7777----------------------------------
A |-5555-8--8--8--8--8888-10-10-10-10--5555-8888-10-10-10-10-10-10-10-10-----
E |------------------6666-8--8--8--8--------6666-8--8--8--8--8--8--8--8------

E |--------------------------------------------------------------------------
B |--------------------------------------------------------------------------
G |--------------------------------------------------------------------------
D |-7777-10-10-10-10------------------10-7777-10-10-10-10------------10------
A |-5555-8--8--8--8--8888-10-10-10-10-8--5555-8--8--8--8--8888-10-10-8-------
E |------------------6666-8--8--8--8----------------------6666-8--8----------

E |--------------------------------------------------------------------------
B |--------------------------------------------------------------------------
G |--------------------------------------------------------------------------
D |-7777-10-10-10-10------------------10-7777--------------------------------
A |-5555-8--8--8--8--10-10-10-10-8-10-8--5555-8888-10-10-10-10-10-10-10-10---
E |------------------8--8--8--8--6-8----------6666-8--8--8--8--8--8--8--8----

E |--------------------------------------------------------------------------
B |--------------------------------------------------------------------------
G |--------------------------------------------------------------------------
D |-----------------77-------------77-----------77---------------------7-----
A |-7-8-7-8-7-8-7-8-55-5-7-8-7-5---55-5-7-8-7---55-5-7-8-7-5---7-8-7-8-5-----
E |-5-6-5-6-5-6-5-6--------------8------------5--------------8-5-6-5-6-------

Clipes

Cifra Club Pro

Aproveite o Cifra Club com benefícios exclusivos e sem anúncios
Cifra Club Pro
Aproveite o Cifra Club com benefícios exclusivos e sem anúncios