busca

All Or Nothing

Pennywise

INTRO
G----------------------------------------------------|
D----------------------------------------------------|
A----------------5-------------------------5---7-777-|
E-2-2-222-2-2-2----5-0-000--2-2-222-2-2-2----5-------|

G---------------------------------------------|
D---------------------------------------------|
A----------------5----------------------------|
E-2-2-222-2-2-2----5-0-000--22222-55555-77777-|

VERSO
G----------------------------------------------------|
D----------------------------------------------------|
A----------------5-------------------------5---7-777-|
E-2-2-222-2-2-2----5-0-000--2-2-222-2-2-2----5-------|

G---------------------------------------------|
D---------------------------------------------|
A----------------5----------------55555-77777-|
E-2-2-222-2-2-2----5-0-000--22222-------------|

G----------------------------------------------------|
D----------------------------------------------------|
A----------------5-------------------------5---7-777-|
E-2-2-222-2-2-2----5-0-000--2-2-222-2-2-2----5-------|

G----------------------------------------------|
D----------------------------------------------|
A----------------5-----------------------------|
E-2-2-222-2-2-2----5-0-000--22222222--5-5--7-7-|

REFRAO
G---------------------------------------------------------|
D---------------------------------------------------------|
A--------5-5------------5-5-7-7--------5-5----------------| 2X
E-2-2-2------5-5--2-2-2----------2-2-2-----5-5-0-0-0-7--5-|

INTRO
VERSO
REFRAO

SOLO
G---------------------------------------------------------|
D---------------------------------------------------------|
A--------5-5------------5-5-7-7--------5-5----------------| 
E-2-2-2------5-5--2-2-2----------2-2-2-----5-5-0-0-0-7--5-|

PONTE
G-----------------------------------------------------|
D-----------------------------------------------------|
A-------5-5-----------2-2-0-0-------5-5-----7-7-9-9-9-|
E-2-2-2-----5-5-0-0-0---------2-2-2-----5-5-----------|

G---------------------|
D---------------------|
A-------5-5-----------|
E-2-2-2-----5-5-0-0-0-|

G----------------------|
D----------------------|
A--------5-57-7-79-9-9-| 5X
E-2-2-2----------------|

INTRO 
REFRAO

Clipes

Cifra Club Pro

Aproveite o Cifra Club com benefícios exclusivos e sem anúncios
7 dias grátis
Cifra Club Pro
Aproveite o Cifra Club com benefícios exclusivos e sem anúncios
7 dias grátis