busca

As Long As We Can

Pennywise

Tom: F#
. - palm mute
X - muted string
~ - let ring

(intro)
(guitar 1)
eb|-------------------------------------|
hb|-------------------------------------|
gb|--8-8-8-8—8---8-8-----6-6-6-6---6-6--|
db|--8-8-8-8—8---8-8-----6-6-6-6---6-6--|
ab|--6-6-6-6—6---6-6-----4-4-4-4---4-4--|
eb|-------------------------------------|
     . . . . .           . . . .

(guitar 2)
eb|------------------------------------|
hb|------------------------------------|
gb|--8~------------------6~------------|
db|--8~-pickslide--------6~-pickslide--|
ab|--6~------------------4~------------|
eb|------------------------------------|

(guitar 3)
eb|-------------------------------------------|
hb|-------------------------------------------|
gb|--8---11---13---15---11---8---13---15---8--|
db|--x----x----x----x----x---x----x----x---x--|
ab|--6----9---11---13----9---6---11---13---6--|
eb|-------------------------------------------|

(riff 1) 
(guitar 1)
eb|---------------------------|----------------------------------------|
hb|---------------------------|----------------------------------------|
gb|--8---6-8---8-6-8-9---8-8--|--8---6-8---8-6-8-9---8-8---------------|
db|--8-4-6-8---8-6-8-9---8-8--|--8-4-6-8---8-6-8-9---8-8----pickslide--|
ab|--6-4-4-6---6-4-6-7---6-6--|--6-4-4-6—--6-4-6-7---6-6---------------|
eb|----2----------------------|----2-----------------------------------|

(riff 1)
(guitar 2)
eb|---------------------------|
hb|---------------------------|
gb|----------------------8-8--|
db|----------------------8-8--|
ab|----------------------6-6--|
eb|---------------------------|

(riff  2) 
(guitar 1+2)
eb|-------------------------|
hb|-------------------------|
gb|--8---6-8--8-6-8-9--8-8--|
db|--8-4-6-8--8-6-8-9--8-8--|
ab|--6-4-4-6--6-4-6-7--6-6--|
eb|----2--------------------|

(riff 3) 
(guitar 1+2)
eb|-------------------------------|
hb|-------------------------------|
gb|--4-4-4-4---4-----6-6-6-6---6--|
db|--4-4-4-4---4-----6-6-6-6---6--|
ab|--2-2-2-2---2-----4-4-4-4---4--|
eb|-------------------------------|
     . . . .         . . . .

(riff 4)
(guitar 1+2)
eb|---------|
hb|---------|
gb|--8---6--|
db|--8-4-6--|
ab|--6-4-4--|
eb|----2----|

(solo)
eb|-----------------------|
hb|-----------------------|
gb|-----------------------|
db|--8---6---8---11---13--|
ab|-----------------------|
eb|-----------------------|

(end riff)
eb|------|
hb|------|
gb|--8---|
db|--8---|
ab|--6---|
eb|------|

structur:
intro
(riff 1) (guitar 1) + (guitar 2)
(riff 2)  
(riff 3)  (1x)
(riff 4)  (4x)
(riff 3)  (1x)
(riff 1)  (guitar 1) (1x)
(riff 2)  (4x)
(riff 3)  (1x)
(riff 4)  (4x)
(riff 3)  (1x)
(riff 2) (4x) (solo) (4x)
(riff 3) 
(end riff) (1x)

Clipes

Cifra Club Pro

Aproveite o Cifra Club com benefícios exclusivos e sem anúncios
7 dias grátis
Cifra Club Pro
Aproveite o Cifra Club com benefícios exclusivos e sem anúncios
7 dias grátis