| / sli" /> | / sli">
busca

Change My Mind

Pennywise

Tom: C
(intro)

E |---------------------------------------------------------------------------|
B |---------------------------------------------------------------------------|
G |---------------------------------------------------------------------------|
D |-------------------------------5---7---2-----------------------------------|
A |---222----555----777----222----3---5---0----2------------------------------|
E |---000----333----555----000-----------------0------------------------------|

(verse)
E |---------------------------------------------------------------------------|
B |---------------------------------------------------------------------------|
G |---------------------------------------------------------------------------|
D |------------------------------5555555----7777777---------------------------|
A |---222----55555/777----222----3333333----5555555----2----------------------|
E |---000----33333/555----000--------------------------0----------------------|

E |---------------------------------------------------------------------------|
B |---------------------------------------------------------------------------|
G |---------------------------------------------------------------------------|
D |----------------------55555----77777---------------------------------------|
A |----22222----55555----33333----55555-----2---------------------------------|
E |----00000----33333-----------------------0---------------------------------|

(interlude)

   p.m ----     ----     ----     ----     ----

E |---------------------------------------------------------------------------|
B |---------------------------------------------------------------------------|
G |---------------------------------------------------------------------------|
D |-------------------------------55555----77777------------------------------|
A |----22222----55555----77777----33333----55555------------------------------|
E |----00000----33333----55555------------------------------------------------|

You try to deny.......      (then back to verse)

E |---------------------------------------------------------------------------|
B |---------------------------------------------------------------------------|
G |---------------------------------------------------------------------------|
D |-------------------5----7--------------------------------------------------|
A |----2----5----7----3----5--------------------------------------------------|
E |----0----3----5------------------------------------------------------------|

(outro)
E |---------------------------------------------------------------------------|
B |---------------------------------------------------------------------------|
G |---------------------------------------------------------------------------|
D |----------------------55555----77777---------------------------------------|
A |----22222----55555----33333----55555-----2---------------------------------|
E |----00000----33333-----------------------0---------------------------------|

| /  slide up
| \  slide down
| h  hammer-on
| p  pull-off
| ~  vibrato
| +  harmonic
| x  mute note

Clipes